Dashboard Confessional - Standard Lines Chords & Tabs

 

Standard Lines Chords & Tabs

Dashboard Confessional Chords & Tabs

Version: 7 Type: Tab 0 ratings
1 star 2 stars 3 stars 4 stars 5 stars
comments

Standard Lines Tab

Tabbed by:m0rPheUs7733
E-mail:juggle_freak@hotmail.com

i've seen other tabs of this song, but none was completely right, so I decided to submit 
own.  It is cobbled together out of a bunch of different tabs, and some of it I made up 
myself. by the way, i think the tuning is a half step down, but I can't be sure.

key:
p-pulloff
h-hammeron
~-slide
x-mute
*-let ring

Intro

eb|---------------------------------------------------------0--------|
Bb|----0----------------------------------------------------------0--|
Gb|--------1-2-1-------2-----2p1---------1-2-1----------1h2---1h2----|
Db|--2-----------2---------0-----2-----2-------2------2--------------|
Ab|------0-----------2---0-----------0-----------0-------------------|
Eb|0---------------0---------------2----------------2----------------|

eb|---------------------------------------0---------0----------------|
Bb|-----0---------------0-----------------------1-0---0-1------------|
Gb|-------------------------------------2-----2-----------2----------|
Db|---2-----6p4h6p4-4p2---2-4~6~4p2---4-----2------------------------|
Ab|-------0-------------------------4--------------------------------|
Eb|-0----------------------------------------------------------------|

Verse

eb|-----------------------------------------------------------------|
Bb|-----------------------------------------------------------------|
Gb|-13---14---13---6*--------13---14---13---4----6----2-------------|
Db|-x----x----x----6*--------x----x----x----4----6----2-------------|
Ab|-11---12---11-------------11---12---11---------------------------|
Eb|-----------------------------------------------------------------|
[ Tab from: http://www.guitartabs.cc/tabs/d/dashboard_confessional/standard_lines_tab_ver_7.html ]
eb|----------------------------------------------------------------|
Bb|----------------------------------------------------------------|
Gb|-13---14---13---6*--------13---14---13---4----6----2------------|
Db|-x----x----x----6*--------x----x----x----4----6----2------------|
Ab|-11---12---11-------------11---12---11--------------------------|
Eb|----------------------------------------------------------------|

Chorus

eb|----------------------------------------------------------------|
Bb|----------------------------------------------------------------|
Gb|-1----2----6----14---13---11---9----11---6----------------------|
Db|-2----2----6----x----x----x----x----x----6----------------------|
Ab|-2--------------12---11---9----7----9---------------------------|
Eb|----------------------------------------------------------------|

eb|----------------------------------------------------------------|
Bb|----------------------------------------------------------------|
Gb|-1----2----6----14---13---11---9----11---6----------------------|
Db|-2----2----6----x----x----x----x----x----6----------------------|
Ab|-2--------------12---11---9----7----9---------------------------|
Eb|----------------------------------------------------------------|

Lyrics:

Verse 1:

Which of the bold faced lies will we use?
I hope that you're happy, you really deserve it,
this will be the best for us both in the end.

Chorus

But your taste still       s on my lips like I just placed them upon yours
and I starve for you.
But this new diet's liquid
and dulling to the senses.
And it's crude but it will do.

Verse 2

Which of the standard lines will we use?
I've been meaning to call you. I've just been so busy.
We'll catch up soon.
Let's make it a point to.

You'll just have to listen to the song to find out where the chord changes are and what 
strumming pattern is.  Also, if any part of this is wrong, or if I'm missing something, 
me because that means I've been playing it wrong all along.
Comments