Dashboard Confessional - Standard Lines Chords & Tabs

 

Standard Lines Chords & Tabs

Dashboard Confessional Chords & Tabs

Version: 4 Type: Tab 0 ratings
1 star 2 stars 3 stars 4 stars 5 stars
comments

Standard Lines Tab

   
#-----------------------------------------------------------------------------#
#-- File created with Instab - http://www.pconline.com/~smcarey/instab.html --#
#-----------------------------------------------------------------------------#

Author/Artist: Dashboard Confessional
Title: Standard Lines
Album: The Places....
Transcribed By: Andrew Biles

Having seen them last night I've been inspired to do a couple more tabs of their stuff.
This is all tabbed from ear so there may be a couple of mistakes, but I slowed
down a recording of the intro to get it as accurate as possible.
Sorry, forgot to add that it's in Eb tuning (Eb, Ab, Db, Gb, Bb, Eb), also lyrics
added at the end.


|---------------------------------------------------------0--------------------
|-----0---------------------------------------------------------0-----0--------
|---------1-2-1-------2-----2-1---------1-2-1---------1-2---1-2----------------
|---2-----------2---------0-----2-----2-------2-----2---------------2---2-6p4--
|-------0-----------2---0-----------0-------------0----------------------------
|-0---------------0---------------2-------------2-----------------0------------
                                                                              

---------------------------0---------0-------
---------0-----------------------1-0---0-1---
-------------------------2-----2-----------2-
-6p4-4p2---2-4/6p4-2---4-----2---------------
---------------------4-----------------------
---------------------------------------------         

|------------------------------------------------------------------------------
|-9-9--9-10-9-7---9-9--9-10-9-7-5-5-----5--9-9--9-10-9-7---9-9--9-10-9-7-5-5---
|-x-x--x-x--x-x---x-x--x-x--x-x-x-x-----x--x-x--x-x--x-x---x-x--x-x--x-x-x-x---
|-6-6--6-7--6-4---6-6--6-7--6-4-2-2-----2--6-6--6-7--6-4---6-6--6-7--6-4-2-2---
|-x-x--x-x--x-x---x-x--x-x--x-x------------x-x--x-x--x-x---x-x--x-x--x-x-------
|-0-0--0-0--0-0---0-0--0-0--0-0------------0-0--0-0--0-0---0-0--0-0--0-0-------
                                                                              

--------
-x-x-5--
-x-x-x--
-x-x-2--
--------
--------
                                                                              

|----------0-------------------0-----------------0-----------------------------
|----------0-------------------0-----------------0-----------------------------
|----------1-------------------2-----------------6-----------------------------
|----------2-------------------4-----------------7-----------------------------
|----------2-------------------0-----------------0-----------------------------
|----------0-------------------------------------------------------------------
  But your taste still lingers on my lips like I just placed them upon yours   

---------------------0------------
-------10-9-7-5--7-4-0------------
-------x--x-x-x--x-x-2------------
-------7--6-4-2--4-2-2------------
-------x--x-x-x--x-x-0------------
-------0--0-0-0--0-0--------------
 and I   starve, I starve for you                                            

[ Tab from: http://www.guitartabs.cc/tabs/d/dashboard_confessional/standard_lines_tab_ver_4.html ]
|---------------------------------------------------------0--------------------
|-----0---------------------------------------------------------0-----0--------
|---------1-2-1-------2-----2-1---------1-2-1---------1-2---1-2----------------
|---2-----------2---------0-----2-----2-------2-----2---------------2---2-6p4--
|-------0-----------2---0-----------0-------------0----------------------------
|-0---------------0---------------2-------------2-----------------0------------
                                                                              

---------------------------0---------0-------
---------0-----------------------1-0---0-1---
-------------------------2-----2-----------2-
-6p4-4p2---2-4/6p4-2---4-----2---------------
---------------------4-----------------------
---------------------------------------------
      

|--------------------------------------------------------0-------------------------------
|-9-9--9-10-9-7---9-9--9-10-9-7-5-5-----5--9-9--9-10-9-7---0-2---0-2-9-9--9-10-9-7-5-5---
|-x-x--x-x--x-x---x-x--x-x--x-x-x-x-----x--x-x--x-x--x-x-------1-----x-x--x-x--x-x-x-x---
|-6-6--6-7--6-4---6-6--6-7--6-4-2-2-----2--6-6--6-7--6-4-------------6-6--6-7--6-4-2-2---
|-x-x--x-x--x-x---x-x--x-x--x-x------------x-x--x-x--x-x-------------x-x--x-x--x-x-------
|-0-0--0-0--0-0---0-0--0-0--0-0------------0-0--0-0--0-0-------------0-0--0-0--0-0-------
                                                                              

--------
-x-x-5--
-x-x-x--
-x-x-2--
--------
--------
                                                                              

|----------0-------------------0-----------------0-----------------------------
|----------0-------------------0-----------------0-----------------------------
|----------1-------------------2-----------------6-----------------------------
|----------2-------------------4-----------------7-----------------------------
|----------2-------------------0-----------------0-----------------------------
|----------0-------------------------------------------------------------------
  But your taste still lingers on my lips like I just placed them upon yours   

---------------------0------------
-------10-9-7-5--7-4-0------------
-------x--x-x-x--x-x-2------------
-------7--6-4-2--4-2-2------------
-------x--x-x-x--x-x-0------------
-------0--0-0-0--0-0--------------
 and I   starve, I starve for you       

|---------------------------------------------------------0--------------------
|-----0---------------------------------------------------------0-----0--------
|---------1-2-1-------2-----2-1---------1-2-1---------1-2---1-2----------------
|---2-----------2---------0-----2-----2-------2-----2---------------2---2-6p4--
|-------0-----------2---0-----------0-------------0----------------------------
|-0---------------0---------------2-------------2-----------------0------------
                                                                              

---------------------------0---------0--------0-
---------0-----------------------1-0---0-1----0-
-------------------------2-----2-----------2--1-
-6p4-4p2---2-4/6p4-2---4-----2----------------2-
---------------------4------------------------2-
----------------------------------------------0-

any questions? andrewbiles@hotmail.com
____________________________
Lyrics:

Which of the bold faced lies will we use
I hope that you're happy, you really deserve it,
This will be the best for us both in the end

But your taste still lingers on my lips 
Like I just placed them upon yours
And I starve, I starve for you
And this new diet's liquid
And dulling to the senses
And it's crude but it will do

Which of the standard lines will we use?
I've been meaning to call you.  I've just been so busy
We'll catch up soon.  We'll make it a point to
Comments