Dashboard Confessional - Standard Lines Chords & Tabs

 

Standard Lines Chords & Tabs

Dashboard Confessional Chords & Tabs

Version: 1 Type: Tab 0 ratings
1 star 2 stars 3 stars 4 stars 5 stars
comments

Standard Lines Tab

Standard Lines
tuned down half a step 
Tabbed By: Chad Bailey 
intro 
e|----------------------------------------------------------0----------------| 
B|------0---------------------------------------------------------0----------| 
G|----------1-2-1-------2-----2-1---------1-2-1---------1h2---1h2------------| 
D|----2-----------2---------0-----2-----2-------2-----2----------------------| 
A|--------0-----------4---0-----------0-------------0------------------------| 
E|--0---------------0---------------2-------------2--------------------------| 

e|------------------------------------------0---------0----------------------| 
B|------0----------------0------------------------1-0---0-1------------------| 
G|----------------------------------------2-----2-----------2----------------| 
D|----2-----6/4/6/4--4/2---2-4/6/4--2---4-----2------------------------------| 
A|--------0---------------------------4--------------------------------------| 
E|--0------------------------------------------------------------------------| 
verse 
e|--------------0-----------------0-----0------0-----------------------------| 
B|--------------0-----------------0-----0------0-----------------------------| 
G|-13----14-----6----13----14-----4-----6------2-----------------------------| 
D|--x-----x-----6-----x-----x-----4-----6------2-----------------------------| 
A|-11----12-----0----11----12-----0-----0------0-----------------------------| 
E|--0-----0-----0-----0-----0-----0-----0------0-----------------------------| 

e|--------------0-----------------0-----0------0-----------------------------| 
B|--------------0-----------------0-----0------0-----------------------------| 
G|-13----14-----6----13----14-----4-----6------2-----------------------------| 
D|--x-----x-----6-----x-----x-----4-----6------2-----------------------------| 
A|-11----12-----0----11----12-----0-----0------0-----------------------------| 
E|--0-----0-----0-----0-----0-----0-----0------0-----------------------------| 
chorus 
e|--0-----0-----0------------------------------------------------------------| 
B|--0-----0-----0------------------------------------------------------------| 
G|--1-----3-----6----14----13----11-----9----11-----8------------------------| 
D|--2-----4-----6-----x-----x-----x-----x-----x-----x------------------------| 
A|--2-----4-----0----12----11-----9-----7-----9-----6------------------------| 
E|--0-----2-----0-----0-----0-----0-----0-----0-----0------------------------| 

e|--0-----0-----0------------------------------------------------------------| 
B|--0-----0-----0------------------------------------------------------------| 
G|--1-----3-----6----14----13----11-----9----11-----8------------------------| 
D|--2-----4-----6-----x-----x-----x-----x-----x-----x------------------------| 
A|--2-----4-----0----12----11-----9-----7-----9-----6------------------------| 
E|--0-----2-----0-----0-----0-----0-----0-----0-----0------------------------| 

e|----------------------------------------------------------------0----------| 
B|------0------------------------------------------------------------------0-| 
G|----------1-2-1-------2-----2-1---------1-2-1---------1----h2-----1---h2---| 
D|----2-----------2---------0-----2-----2-------2-----2----------------------| 
A|--------0-----------4---0-----------0-------------0------------------------| 
E|--0---------------0---------------2-------------2--------------------------| 
[ Tab from: http://www.guitartabs.cc/tabs/d/dashboard_confessional/standard_lines_tab.html ]
e|------------------------------------------0---------0----------------------| 
B|------0----------------0------------------------1-0---0-1------------------| 
G|----------------------------------------2-----2-----------2----------------| 
D|----2-----6/4/6/4--4/2---2-4/6/4--2---4-----2------------------------------| 
A|--------0---------------------------4--------------------------------------| 
E|--0------------------------------------------------------------------------| 

e|--------------0-----------------0-----0------0-----------------------------| 
B|--------------0-----------------0-----0------0-----------------------------| 
G|-13----14-----6----13----14-----4-----6------2-----------------------------| 
D|--x-----x-----6-----x-----x-----4-----6------2-----------------------------| 
A|-11----12-----0----11----12-----0-----0------0-----------------------------| 
E|--0-----0-----0-----0-----0-----0-----0------0-----------------------------| 

e|--------------0-0--------------------------0-----0-----0-------------------| 
B|--------------0---0-------0----------------0-----0-----0-------------------| 
G|-13----14-----6-----6---6-----13----14-----4-----6-----2-------------------| 
D|--x-----x-----6-------6--------x-----x-----4-----6-----2-------------------| 
A|-11----12-----0---------------11----12-----0-----0-----0-------------------| 
E|--0-----0-----0----------------0-----0-----0-----0-----0-------------------| 

e|--0-----0-----0------------------------------------------------------------| 
B|--0-----0-----0------------------------------------------------------------| 
G|--1-----3-----6----14----13----11-----9----11-----8------------------------| 
D|--2-----4-----6-----x-----x-----x-----x-----x-----x------------------------| 
A|--2-----4-----0----12----11-----9-----7-----9-----6------------------------| 
E|--0-----2-----0-----0-----0-----0-----0-----0-----0------------------------| 

e|--0-----0-----0------------------------------------------------------------| 
B|--0-----0-----0------------------------------------------------------------| 
G|--1-----3-----6----14----13----11-----9----11-----8------------------------| 
D|--2-----4-----6-----x-----x-----x-----x-----x-----x------------------------| 
A|--2-----4-----0----12----11-----9-----7-----9-----6------------------------| 
E|--0-----2-----0-----0-----0-----0-----0-----0-----0------------------------| 

e|----------------------------------------------------------0----------------| 
B|------0---------------------------------------------------------0----------| 
G|----------1-2-1-------2-----2-1---------1-2-1---------1h2---1h2------------| 
D|----2-----------2---------0-----2-----2-------2-----2----------------------| 
A|--------0-----------4---0-----------0-------------0------------------------| 
E|--0---------------0---------------2-------------2--------------------------| 

e|------------------------------------------0---------0----------------------| 
B|------0----------------0------------------------1-0---0-1------------------| 
G|----------------------------------------2-----2-----------2----------------| 
D|----2-----6/4/6/4--4/2---2-4/6/4--2---4-----2------------------------------| 
A|--------0---------------------------4--------------------------------------| 
E|--0------------------------------------------------------------------------| 

e|----0----| 
B|----0----|
G|----1----| 
D|----2----| 
A|----2----| 
E|----0----| 
===============================================================================
Comments