Dashboard Confessional - So Long Sweet Summer Chords & Tabs

 

So Long Sweet Summer Chords & Tabs

Dashboard Confessional Chords & Tabs

Version: 1 Type: Tab 0 ratings
1 star 2 stars 3 stars 4 stars 5 stars
comments

So Long Sweet Summer Tab

   
heres the whole tab for the song cuz the other tab doesnt have the riffs for the song
[ Tab from: http://www.guitartabs.cc/tabs/d/dashboard_confessional/so_long_sweet_summer_tab.html ]
Tuning: 1/2 step down
Intro riff
eb|-5------------------------------------|
Bb|---4-6-7-6/2--------------------------|
Gb|-----------------2--------------------|
Db|-------------0-----0---------0--------|   x2
Ab|---------------2-----2-----0-----0----|
Eb|-----------------------0-5-----2---7-3|
Verse 1
     D  A  B  G9  
eb|--2--------3-|
Bb|--3--2--3--3-|
Gb|--2--2--4--0-|
Db|--0--2--4--0-| x4(on 3rd time pm the D chord then strum normally)
Ab|-----0--2--2-|
Eb|-----------3-|
Verse 2
eb|-3-----3-----------0------------2-----5-----3---|
Bb|---2-----2-------2---2--------0---0-----0-----0-|
Gb|-----3-----3---0-------0---2-------2-----0-----0|
Db|------------------------------------------------|x4
Ab|-------------------------2----------------------|
Eb|-------------0----------------------------------|

Repeat Verse 1 x4
Repeat Intro x2

Outro
eb|-------|
Bb|-------|
Gb|-------|
Db|7-4-9-5|x8
Ab|7-4-9-5|
Eb|5-2-7-3|

the outro leads the the beginning of another song so strum the A5 a couple of times.

and there you go. happy playing
Comments