Dashboard Confessional - So Long Sweet Summer Chords & Tabs

 

So Long Sweet Summer Chords & Tabs

Dashboard Confessional Chords & Tabs

Version: 1 Type: Chords 0 ratings
1 star 2 stars 3 stars 4 stars 5 stars
comments

So Long Sweet Summer Chords

   
-----------------------------------------------------------------------------
	 so long sweet summer----dashboard confessional
-----------------------------------------------------------------------------
Tabbed by:erka
tuning:-standard...but i might be wrong

-this is a pretty easy song, so, i duno the chords are enough, you can get the rest

Chords:--i didnt know the real chord name of G2...so i called it G2 =P

        D               A                G2                 G
e|------2---------------0-----------------2-----------------3------------|
B|------3---------------2-----------------3-----------------3------------|
G|------2---------------2-----------------0-----------------0------------|
D|------0---------------2-----------------0-----------------0------------|
A|------x---------------0-----------------x-----------------x------------|
E|------x---------------0-----------------3-----------------3------------|
[ Tab from: http://www.guitartabs.cc/tabs/d/dashboard_confessional/so_long_sweet_summer_crd.html ]
Chorus==
D    A        G2-G-G2-G
So long sweet summer 
     D                      A                      G2-G-G2-G
I stumbled upon you and gratefully basked in your rays 
D    A         G2-G-G2-G
So long sweet summer 
    D
I fell into you 
              A                G2-G-G2-G
Now you're gracefully falling away 

-verse uno-
D     A
Hey thanks
                  G2-G-G2-G 
Thanks for that summer 
       D
It's cold where you're going 
    A                            G2-G-G2-G
I hope that your heart's always warm 
    D
I gave you the best 
 A                        G2-G-G2-G
Gave you the best that I have 

---same as chorus above---
So, so long sweet summer 
I stumbled upon you and gratefully basked in your rays 
So long sweet summer 
I fell into you 
Now you're gracefully falling away 

D            A          G2-A
I hate the winter, in Lexington
 D            A          G2-A
I hate the winter, in Lexington 
G2-A            G2-A      G2-A
In Lexington, Lexington, Lexington
Comments