Dashboard Confessional - So Impossible Chords & Tabs

 

So Impossible Chords & Tabs

Dashboard Confessional Chords & Tabs

Version: 3 Type: Tab 0 ratings
1 star 2 stars 3 stars 4 stars 5 stars
comments

So Impossible Tab

   
-------------------------------------------------------------------------------
			     SO IMPOSSIBLE - Dashboard Confessional
-------------------------------------------------------------------------------
Tabbed by: Acoustic_Playing_Kid
Email: MiddleLem55@hotmail.com


Another great song by Dashboard Confessional.


Tuning: Standard (EADGBe)

Intro:
(So she says..)
e|----0----|
B|----0----|
G|----8----|
D|---10----| x8
A|---10----|
E|----0----|

Verse:
(Everyone's gone to the party...)
e|---0-----0---0---0----|
B|---0-----0---0---0----|
G|---7-----8---7---5----|
D|---8----10---8---6----| x4 
A|---8-----0---0---6----|
E|---6-----x---x---x----|

Pre-Chorus (palm-muted):
(I was hoping to learn a few things...)
e|------------|
B|------------|
G|------------|
D|---5---6----|
A|---5---6----|
E|---3---4----|
[ Tab from: http://www.guitartabs.cc/tabs/d/dashboard_confessional/so_impossible_tab_ver_3.html ]
Chorus:
(Do you, do you like dashing...)
e|---0----0----0---0----|
B|---0----0----0---0----|
G|---7----2----3---5----|
D|---8----3----5---6----|
A|---8----3----5---6----| x4
E|---6----1----x---x----|

Outro (palmuted):
(And so yes...)
e|-----------------|
B|-----------------|
G|-------10--------|
D|---8---10---6----|
A|---8---8----6----|
E|---6--------4----|

Second guitar part that is heard in the backround:
e|----------1---------1-3-------------------1-----------------------------|
B|----1-3-4-----1-3-4-------1-3-4-3---1-3-4-----1-3-3/4\3-1---------------|
G|--3---------3-----------3---------3---------3---------------3-1---------|
D|----------------------------------------------------------------4-3-1---|
A|------------------------------------------------------------------------|
E|------------------------------------------------------------------------|


| /  slide up
| \  slide down
| h  hammer-on
| p  pull-off
| ~  vibrato
| +  harmonic
| x  Mute note


Happy Playing!
===============================================================================
Comments