Dashboard Confessional - So Impossible Chords & Tabs

 

So Impossible Chords & Tabs

Dashboard Confessional Chords & Tabs

Version: 1 Type: Tab 0 ratings
1 star 2 stars 3 stars 4 stars 5 stars
comments

So Impossible Tab

   
Author/Artist: Dashboard Confessional
Title: So Impossible
Album: So Impossible
Transcribed by: Nick Mosvick
Email: mosvick@hotmail.com 

Acoustic Guitar, Drop 1/2 Step (Eb, Ab, Db, Gb, Bb, Eb)

Intro Chord: 

Eb--0----------------------------------------------
Bb--0----------------------------------------------
Gb--4----------------------------------------------
Db--6----------------------------------------------
Ab--6----------------------------------------------
Eb--4----------------------------------------------

Then the verse...

Eb---0--0-------------------------------------------
Bb---0--0-------------------------------------------
Gb---8--6-------------------------------------------
Db---9--7-------------------------------------------
Ab---9--7-------------------------------------------
Eb---7--5-------------------------------------------

Pre-chorus: (Palm-mute the first chord)
[ Tab from: http://www.guitartabs.cc/tabs/d/dashboard_confessional/so_impossible_tab.html ]
Eb-------0-0-0-0--------------------------------------
Bb-------0-0-0-0--------------------------------------
Gb--4--6-6-6-6-6--------------------------------------
Db--6--7-7-7-7-7--------------------------------------
Ab--6--7-7-7-7-7--------------------------------------
Eb--4--5-5-5-5-5--------------------------------------

Chorus:

Eb--0--0--0---0---------------------------------------
Bb--0--0--0---0---------------------------------------
Gb--8--3--9---6---------------------------------------
Db--9--4--11--7---------------------------------------
Ab--9--4--11--7---------------------------------------
Eb--7--2--9---5---------------------------------------

End on the A:

Eb----0--------------------------------------------
Bb----0--------------------------------------------
Gb----6--------------------------------------------
Db----7--------------------------------------------
Ab----7--------------------------------------------
Eb----5--------------------------------------------

Listen to the song for the exact timing
Comments