Dashboard Confessional - So Beautiful Chords & Tabs

 

So Beautiful Chords & Tabs

Dashboard Confessional Chords & Tabs

Version: 1 Type: Tab 0 ratings
1 star 2 stars 3 stars 4 stars 5 stars
comments

So Beautiful Tab

   
#-----------------------------------------------------------------------------#
#-- File created with Instab - http://www.pconline.com/~smcarey/instab.html --#
#-----------------------------------------------------------------------------#

Author/Artist: Dashboard Confessional
Title: So Beautiful
Album: A mark, a mission, a brand, a scar
Transcribed by: Andrew Biles
Eb tuning (Eb, Ab, Db, Gb, Bb, Eb)

In the intro, the second guitar comes in second time round and then they play
straight into the verse.  I couldn't work out if the second guitar was playing
something different in the chorus so I left it and have both playing the same chords.

Intro 
|-0--0---0--0--0--0--0-
|-0--0---0--0--0--0--0- 
|-8--9---6--8--4--8--9- 
|-9--11--7--9--4--9--9- 
|-0--0---0--6--2--6--7- 
|---------------------- 

|-2-0---0----------
|-0-0-4-0-2-4---4~-
|------------------
|------------------
|------------------
|------------------
guitar 2

Verse 
|--0--0--0--0--
|--0--0--0--0-- 
|--8--8--6--9-- 
|--9--9--6--9--
|--0--6--4--7--
|-------------- 

|-------------------|--0-
|-7-------7-7-------|--0-
|---9-8-9-----9-8-9-|--4-
|-------------------|--4-
|-------------------|--2-
|-------------------|----
guitar 2         x4

later on in the verse just play the first 4 notes of the riff (guitar 2)

Chorus 
|--0-----------0---------------0----------------------------------0----------
|--0-----------0---------------0----------------------------------0----------
|--8-----------8---------------9----------------------------------8----------
|--9-----------9---------------9----------------------------------9----------
|--0-----------6---------------7----------------------------------0----------
|----------------------------------------------------------------------------
 done. Careful now, you're so beautiful when you've convinced yourself, noone 

|-0----------------0---------
|-0----------------0---------
|-8----------------9---------
|-9----------------9---------
|-6----------------7---------
|----------------------------
  else is quite as beautiful

Bridge
|---------------------------------------
|-7-------7-7-------7-------------------
|---9-8-9-----9-8-9---9-8-9-6-6-8-9-8-8-
|-------------------------------------9-
|---------------------------------------
|---------------------------------------
guitar 2
guitar 1 plays verse chords

Verse

Chorus 2
|-0------------0--------------------0--------------------------------0--------
|-0------------0--------------------0--------------------------------0--------
|-8------------8--------------------9--------------------------------8--------
|-9------------9--------------------9--------------------------------9--------
|-0------------6--------------------7--------------------------------0--------
|-----------------------------------------------------------------------------
  them. Hoping now, that you've got everyone convinced that you're alright, no

|----0----------------0----------
|----0----------------0----------
|----8----------------9----------
|----9----------------9----------
|----6----------------7----------
|--------------------------------
 one else is quite as vulnerable

Bridge 2
|--0----------------------0--------------------------0---------------------0--- 
|--0----------------------0--------------------------0---------------------0--- 
|--8----------------------8--------------------------1---------------------4--- 
|--9----------------------9--------------------------2---------------------6---
|--0----------------------6--------------------------2---------------------6--- 
|----------------------------------------------------0-------------------------
 As soon as you've got it, you want something else.  It's not the sale you love

---------0----
---------0----
---------2----
---------2----
---------0----
--------------
it's the sell
[ Tab from: http://www.guitartabs.cc/tabs/d/dashboard_confessional/so_beautiful_tab.html ]
Bridge 2 continues with different lyrics, then into...
 
Chorus
|-0------------0--------------------0--------------------------------0--------
|-0------------0--------------------0--------------------------------0--------
|-8------------8--------------------9--------------------------------8--------
|-9------------9--------------------9--------------------------------9--------
|-0------------6--------------------7--------------------------------0--------
|-----------------------------------------------------------------------------
        Hoping now, that you've got everyone convinced that you're alright, no

|----0----------------0----------
|----0----------------0----------
|----8----------------9----------
|----9----------------9----------
|----6----------------7----------
|--------------------------------
 one else is quite as vulnerable.

--0-----------0---------------0*---------------------------------0----------
--0-----------0---------------0*---------------------------------0----------
--8-----------8---------------9*---------------------------------8----------
--9-----------9---------------9*---------------------------------9----------
--0-----------6---------------7*---------------------------------0----------
----------------------------------------------------------------------------
      Careful now, you're so beautiful when you've convinced yourself, noone 

|-0----------------0---------
|-0----------------0---------
|-8----------------9---------
|-9----------------9---------
|-6----------------7---------
|----------------------------
  else is quite as beautiful

Bridge 2 again
|--0----------------------0--------------------------0---------------------0--- 
|--0----------------------0--------------------------0---------------------0--- 
|--8----------------------8--------------------------1---------------------4--- 
|--9----------------------9--------------------------2---------------------6---
|--0----------------------6--------------------------2---------------------6--- 
|----------------------------------------------------0-------------------------
 As soon as you've got it, you want something else.  It's not the sale you love

---------0----
---------0----
---------2----
---------2----
---------0----
--------------
it's the sell

|-0-
|-0-
|-8-
|-9-
|-0-
|---

any questions? andrewbiles@hotmail.com
__________________________
Lyrics:

I heard that you were home again, but you don't look like your back to me
With your focuses changing your gaze is transfixed on a point that I can't often see
You've got your new ties, i've got my old knots, you've got your inside lines
But your never happy with what you've got

Careful now,
you're so beautiful
when you've convinced yourself
that no one else is quite as beautiful

I heard that you were living well, but you don't look like your living to me
though the sparkle is gone, the smile is in place so that everyone watching can see
You've got them all convinced, but I know it so well
that you can list your friends, but you can't count on them

Hold it now
you've got everyone convinced that your alright
when no one else is quite as vulnerable

as soon as you got it you want something else
it's not the sale that you love, its the sell
it's not the price that's going to cost you
it's just the weight that's going to bring you
down, down, down, down

it's going to bring you down, down, down, down, down

hold it now
you've got everyone convinced that your alright
when no one else is quite as vulnerable

careful now
your so beautiful, when you've convinced yourself
no one else is quite as beautiful

as soon as you got it you want something else
it's not the sale that you love, its the sell
it's not the price that's going to cost you
it's just the weight that's going to bring you
down, down, down, down

it's going to bring you down, down, down, down, down

as soon as you got it you want something else
it's not the sale that you love, its the sell

it's not the price that's going to cost you
it's just the weight that's going to bring you
down
Comments