Dashboard Confessional - Shirts And Gloves Chords & Tabs

 

Shirts And Gloves Chords & Tabs

Dashboard Confessional Chords & Tabs

Version: 2 Type: Tab 0 ratings
1 star 2 stars 3 stars 4 stars 5 stars
comments

Shirts And Gloves Tab

   
Dashboard Confessional - Shirts and Gloves

hey guys! this is the first tab that I'm submitting.. and I hope you find it useful!

Tuning: Eb-Ab-Db-Gb-Bb-Eb

Verse

When I'm back from the road, then you're out on it..
Eb|--3---0---0--0---0------------------------------------------
Ab|--3---0---0--1---0------------------------------------------
Db|--0---0---2--2---0------------------------------------------
Gb|--0---2---2--2---5------------------------------------------
Bb|--2---2---0--0---3------------------------------------------
Eb|--3---0---0--0---0------------------------------------------ 

..and I'm tired of this distance, and I believe it's over--its over-rated..
Eb|--0---0---0---0---0----0---------------------------------------
Ab|--0---0---0---0---0----0---------------------------------------
Db|--0---0---0---0---0----0---------------------------------------
Gb|--5---5---5---5---5----7---------------------------------------
Bb|--7---6---5---4---3----5---------------------------------------
Eb|--0---0---0---0---0----0--------------------------------------- 


And this phone tag game is endless, the novelty is wearing..
Eb|--3---0---0--0---0------------------------------------------
Ab|--3---0---0--1---0------------------------------------------
Db|--0---0---2--2---0------------------------------------------
Gb|--0---2---2--2---5------------------------------------------
Bb|--2---2---0--0---3------------------------------------------
Eb|--3---0---0--0---0------------------------------------------ 

..im hoping time will pass without any assistance or convincing..
Eb|--0---0---0---0---0----0---------------------------------------
Ab|--0---0---0---0---0----0---------------------------------------
Db|--0---0---0---0---0----0---------------------------------------
Gb|--5---5---5---5---5----7---------------------------------------
Bb|--7---6---5---4---3----5---------------------------------------
Eb|--0---0---0---0---0----0--------------------------------------- 

Chorus

Road rules apply, there's so much action...
Eb|---------------------------------------------------------------
Ab|-----------------------0---------------------------------------
Db|-------0------0------0-----------------------------------------
Gb|-----9--0---7--0---5--------------7----------------------------
Bb|--10-------9------7---------3-----5----------------------------
Eb|--------------------------------------------------------------- 

So, I'll call your, cellular phone, to tell you T.V. night was...
Eb|----------------------------------------------------------------
Ab|-----------------------0----------------------------------------
Db|-------0------0------0-----0-----0------------------------------
Gb|-----9--0---7--0---5--------0-----0-----------------------------
Bb|--10-------9------7----------3-----5----------------------------
Eb|---------------------------------------------------------------- 

Lonely without you, and so am I.... so am I...
[ Tab from: http://www.guitartabs.cc/tabs/d/dashboard_confessional/shirts_and_gloves_tab_ver_2.html ]
Eb|-----------------------------------------------------------------
Ab|-----------------------0-----------------------------------------
Db|-------0------0------0-----------------0-------------------------
Gb|-----9--0---7--0---5---------------------4-----------------------
Bb|--10-------9------7--------5/7/3-5----5--------------------------
Eb|----------------------------------------------------------------- 

It seems our day keeps falling on a leap year...

Eb|-------------------------------------------------------------
Ab|-----------------------0-------------------------------------
Db|-------0------0------0----0-----0----------------------------
Gb|-----9--0---7--0---5-------0-----0---------------------------
Bb|--10-------9------7---------3-----5--------------------------
Eb|------------------------------------------------------------- 

the first part of the second verse is the played the same way as the first verse,
only theres this small change --

..and you are heading home, just in time for me, for me, to leave
Eb|-----------------------0---------------------------------------
Ab|-----------------------0---------------------------------------
Db|-----------------------0---------------------------------------
Gb|--5---5---5---5---5----7---------------------------------------
Bb|--7---6---5---4---3----5---------------------------------------
Eb|-----------------------0--------------------------------------- 
                     ^the last time you strum this chord, it's -0-
                                                               -0-
                                                               -0-
                                                               -5-
                                                               -3-
                                                               -0-
Road rules apply, there's so much action...
Eb|---------------------------------------------------------------
Ab|-----------------------0---------------------------------------
Db|-------0------0------0-----0-----------------------------------
Gb|-----9--0---7--0---5--------0----- 7---------------------------
Bb|--10-------9------7----------3-----5---------------------------
Eb|--------------------------------------------------------------- 

So make sure that I'm up-to-date on T.V. night, I'd hate to miss out
Eb|-----------------------------------------------------------
Ab|-----------------------0-----------------------------------
Db|-------0------0------0-----0-----0----0--------------------
Gb|-----9--0---7--0---5--------0-----0-----4------------------
Bb|--10-------9------7----------3-------5---------------------
Eb|----------------------------------------------------------- 

I think I miss you most..on Wednesdays, and Saturdays
Eb|-----------------------------------------------------------
Ab|-----------------------0-----------------------------------
Db|-------0------0------0-----------------0-------------------
Gb|-----9--0---7--0---5---------------------4-----------------
Bb|--10-------9------7--------5/7/3-5----5--------------------
Eb|-----------------------------------------------------------

It seems our day keeps falling on a leap year
Eb|-------------------------------------------------------------
Ab|-----------------------0-------------------------------------
Db|-------0------0------0-----0---------------------------------
Gb|-----9--0---7--0---5--------0--------------------------------
Bb|--10-------9------7----------3-------------------------------
Eb|-------------------------------------------------------------
Comments