Dashboard Confessional - Shirts And Gloves Chords & Tabs

 

Shirts And Gloves Chords & Tabs

Dashboard Confessional Chords & Tabs

Version: 1 Type: Tab 0 ratings
1 star 2 stars 3 stars 4 stars 5 stars
comments

Shirts And Gloves Tab

   
Shirts & Gloves
Notes: This has no stumming help, or rhythm.

Tuning: Eb-Ab-Db-Gb-Bb-Eb

Verse
"When I'm back from the road, then your out....."

Eb|--3---0---0--0---0------------------------------------------
Ab|--3---0---0--1---0------------------------------------------
Db|--0---0---2--2---0------------------------------------------
Gb|--0---2---2--2---5------------------------------------------
Bb|--2---2---0--0---3------------------------------------------
Eb|--3---0---0--0---0------------------------------------------ 

con't.
"And I'm tired of this distance, and I believe it's.."

Eb|--0------------------------------------------------------------
Ab|--0------------------------------------------------------------
Db|--0------------------------------------------------------------
Gb|--5---5---5---5---5----7---------------------------------------
Bb|--7---6---5---4---3----5---------------------------------------
Eb|--0------------------------------------------------------------ 

Chorus
" Road rules apply, there's so much action...."
[ Tab from: http://www.guitartabs.cc/tabs/d/dashboard_confessional/shirts_and_gloves_tab.html ]
Eb|---------------------------------------------------------------
Ab|-----------------------0---------------------------------------
Db|-------0------0------0---0-----0-------------------------------
Gb|-----9--0---7--0---5------0-----0------------------------------
Bb|--10-------9------7---------3-----5----------------------------
Eb|--------------------------------------------------------------- 

"I'll call your, cellular phone, to tell you T.V nite was..."

Eb|----------------------------------------------------------------
Ab|-----------------------0----------------------------------------
Db|-------0------0------0---0---------0----------------------------
Gb|-----9--0---7--0---5------0-----------4-------------------------
Bb|--10-------9------7---------3---5-------------------------------
Eb|---------------------------------------------------------------- 

"Lonely without, and so am I.... so am I..."

Eb|-----------------------------------------------------------------
Ab|-----------------------0-----------------------------------------
Db|-------0------0------0---------------0------0--------------------
Gb|-----9--0---7--0---5-------------------0-------4-----------------
Bb|--10-------9------7--------5-7-5-3-------5-----------------------
Eb|----------------------------------------------------------------- 

"It seems our day keeps falling on a leap year..."

Eb|-------------------------------------------------------------
Ab|-----------------------0-------------------------------------
Db|-------0------0------0---0-----0-----------------------------
Gb|-----9--0---7--0---5------0-----0----------------------------
Bb|--10-------9------7---------3-----5--------------------------
Eb|------------------------------------------------------------- 

There's a few very minor changes through the second
time, but nothing really big, you'll figure it out.
Comments