Dashboard Confessional - Several Ways To Die Trying Chords & Tabs

 

Several Ways To Die Trying Chords & Tabs

Dashboard Confessional Chords & Tabs

Version: 3 Type: Tab 0 ratings
1 star 2 stars 3 stars 4 stars 5 stars
comments

Several Ways To Die Trying Tab

-----------------------------------------------------------------------------
             Dashboard Confessional- Several Ways To Die Trying
-----------------------------------------------------------------------------
Tabbed By: Justin M (BBM)
Email: bigballinboys_06@hotmail.com

Tuning: Standard EADGBe
[ Tab from: http://www.guitartabs.cc/tabs/d/dashboard_confessional/several_ways_to_die_trying_tab_ver_3.html ]
Intro:
e|-x-x-------x-x-x-------0-0-0--0---x-x-x-x-x-x-x----^
B|-0-0-------0-0-0-------0-0-0---0--0-0-0-0-0-0-0---- ^ 
G|-1-1-------2-2-2-------2-2-2------2-2-2-2-2-2-2----  ^ Repeat 2X for Intro
D|-2-2--2-2--2-2-2--2-2--4-4-4------4-4-4-4-4-4-4----  ^ and through Verse
A|-2-2---2---1-1-1---1---0-0-0------4-4-3-4-3-4-3---- ^
E|-0-0-------0-0-0-------0-0-0------0-0-0-0-0-0-0----^

Chorus:
"Oh how we shouted, how we screamed....."
e|-0--0--0--0--0--0--0--
B|-0--0--0--0--0--0--0--
G|-6--2--1--2--2--2--2--
D|-6--2--2--2--4--4--4--
A|-4--0--2--1--0--4--3--
E|-0--0--0--0--0--0--0--

"They're burning the roads they build to lead us to the light..."
e|-0--0--
B|-0--0--
G|-1--2--
D|-2--4--
A|-2--4--
E|-0--0--

*This tab sounds real close to the song so im sure its right...Have Fun!!
Comments