Dashboard Confessional - Screaming Infidelities Chords & Tabs

 

Screaming Infidelities Chords & Tabs

Dashboard Confessional Chords & Tabs

Version: 5 Type: Tab 0 ratings
1 star 2 stars 3 stars 4 stars 5 stars
comments

Screaming Infidelities Tab

   
This is an awesome song. I'm almost positive that this is the correct way to play it.
I haven't seen them live, so I can't be 100% sure, but it sounds pretty darn good.


Tuning: C#,Ab,C#,F#,Ab,C# (Db,Ab,Db,Gb,Ab,Db)

Verse:
Db---0--0----0--0---0-0-----------|
Ab---0--0----0--0---0-0-----------|
Gb---12/11---7--7---7-7---7-7-----|
Db---12-12---9/10---7-7---9/8-----|
Ab---10/-9---x--x---x-x---x-x-----|
Db-----------9/10---5/4---9/8-----|
[ Tab from: http://www.guitartabs.cc/tabs/d/dashboard_confessional/screaming_infidelities_tab_ver_5.html ]
Chorus:(I'm not positive about this, it sounds a little sketchy)
Db----0-0-0-0-0-0-0-0-0-0-0-0-0-0-0-0----|
Ab----9/10/12/10/-9/12/10/-9/7/-9/10/-9/5/7/-9/12----|
Gb---11/12/14/12/11/14/12/11/9/11/12/11/7/9/11/14----|
Db---------------------------------------------------|
Ab---------------------------------------------------|
Db---------------------------------------------------|

Bridge:
Db----0---0---2---0            ---------|
Ab----0---0---2---0             --------|
Gb---11--7--4---7             -12/11--|
Db---12--5--2---5  (4x) then: -12-12--| (let ring)
Ab----9--x--2---x             -10/-9--|
Db----0--5--2---5             --------|
Comments