Dashboard Confessional - Screaming Infidelities Chords & Tabs

 

Screaming Infidelities Chords & Tabs

Dashboard Confessional Chords & Tabs

Version: 1 Type: Tab 0 ratings
1 star 2 stars 3 stars 4 stars 5 stars
comments

Screaming Infidelities Tab

OK heres the correct tuning for the song  Db-Ab-Db-Gb-Bb-Db  
some people tend to think he tunes to DADGAD half a step down but I think that is incorrect.    I wont be giving rythyms or strumming patters,   so as long as you use this exact tuning and play along with the CD you should get it yourself.

This is a more advanced tab aimed at combining both guitar parts into one to create something that sounds just like what Chris has on the CD so if you are a begining guitar player I dont recomend this version.  

Verse 1  

          Im missing your bed, I never sleep avoiding the spots 
5--5--5--4---------------------0--0--0--0----------------------
3--3--3--3---------------------3--3--3--3----------------------
0--0--0--0---------------------0--0--0--0----------------------
0--0--0--4---------------------0--0--0--2----------------------
0--0--0--0---------------------2--2--2--3----------------------
0--0--0--0---------------------x--x--x--x----------------------

where we'd have to speak and this bottle of beasts is taking me 
------5----5----5--4----------------------------------4-4----2
------0----0----0--3----------------------------------3-3----3
------0----0----0--0----------------------------------0-0----0
------0----0----0--0----------------------------------0-0----0
------x----x----x--x----------------------------------4-4----2
------5----5----5--4----------------------------------x-x----x

home ...
------2-----|
------3-----|    repeat these series of chords again for each 
------0-----|    progression of the verse
------0-----|
------1-----|
------x-----|
[ Tab from: http://www.guitartabs.cc/tabs/d/dashboard_confessional/screaming_infidelities_tab.html ]
Chorus 1 - (Here is the part that Chris plays before he starts singing.  It is also exactly the same when he sings with it)
* This part is a bit tricky to do correctly so dont be afraid to move your fingers around until they find the places that are easiest to get all the notes.  

 As for now im   gonna hear the saddest songs and sit alone  
-x-x-x--x--x-x-x-x--x--x--x-x-x-x-------x---------7------------
-7-8-10-10-8-7-8-10-10-10-8-7-x-x-------x---------0------------
-7-7-7--7--7-7-7-0--0--0--0-0-9-9-------11--------0------------
-0-0-0--0--0-0-0-0--0--0--0-0-0-0-------0---------0------------
-x-x-x--x--x-x-x-7--7--7--x-x-x-0-------0---------0------------
-x-x-x--x--x-x-x-x--x--x--x-x-x-9-------9---------5------------

and wander   how your making out...
----x-x-x--x-x--------9----------|
----8-7-x--x-x--------0----------|  repeat this 3 times in total
----7-7-7--9-11-------0----------|  with words and without.
----0-0-0--0-0--------0----------|
----x-x-0--0-0--------9----------|
----x-x-0--9-9--------x----------|

Verse 2 - (is played exactly the same as the first verse but with different words)

chorus 2 - (is played exactly the same as the first chorus)

Outro 
      Your hair is everywhere   screaming infidelities and 
4------------------7------------2--------------------------
3------------------0------------5--------------------------
2------------------0------------2--------------------------
4------------------0------------2--------------------------
0------------------0------------2--------------------------
0------------------5------------2--------------------------

taking its wear
0-----------------|
3-----------------|    repeat chord progression 4 times
0-----------------|
0-----------------|
5-----------------|
5-----------------|

and end with
5-5-5--4
3-3-3--3
0-0-0--0
0-0-0--4
0-0-0--0
0-0-0--0
Comments