Dashboard Confessional - Saints And Sailors Chords & Tabs

 

Saints And Sailors Chords & Tabs

Dashboard Confessional Chords & Tabs

Version: 3 Type: Tab 0 ratings
1 star 2 stars 3 stars 4 stars 5 stars
comments

Saints And Sailors Tab

   
This is definitely my fav track that I've heard by Dashboard Confessional,
and it's quite an easy one to play, so enjoy.

Tuning Db, Ab, Db, Gb, Bb, Eb (drop D and 1/2 step)

Intro
|------------------
|------------------
|------0h2---------
|----0-------0-4/5-
|--2-------0-------
|------------------

Verse
|-----------------------------------------------------------------------------------
|-----------------------------------------------------------------------------------
|-7----------------------------14-----------------------11----------------9------7-- 
|-4----------------------------11-----------------------9-----------------7------5-- 
|-5----------------------------12-----------------------9-----------------7------5-- 
|-0----------------------------0------------------------9-----------------7------5--
 This is where I say I've had enough, and no one should feel the way that I feel now

|-------------------------------------------------------------------------------
|-------------------------------------------------------------------------------
|--7---------------------14----------------------------11-------------------9---
|--4---------------------11----------------------------9--------------------7---
|--5---------------------12----------------------------9--------------------7---
|--0---------------------0-----------------------------9--------------------7---
 A walking open wound, a trophy display of bruises and I don't believe that I'm 

-------------------------------
-------------------------------
------------7------------9-----
------------5------------7-----
------------5------------7-----
------------5------------7-----
getting any better ...any better

Chorus
|-----------------------------------------------------------------------------
|-----------------------------------------------------------------------------
|-7-------------------------------------7------------7--------------7---------
|-4-------------------------------------5------------7--------------4---------
|-5-------------------------------------5------------7--------------5---------
|-0-------------------------------------5------------7--------------0---------
 Waiting here with hopes the phone will ring and I'm thinking awful things and 

-------------------------------------------------------
-------------------------------------------------------
-------------------------------7-----------0h2---------
-------------------------------5---------0-------0-4/5-
-------------------------------5-------2-------0-------
-------------------------------5----------------------- 
I'm pretty sure that few would notice

|------------------------------------------------------------------------------
|------------------------------------------------------------------------------
|-7--------------------7---------------7----------7----------------------------
|-4--------------------5---------------7----------4----------------------------
|-5--------------------5---------------7----------5----------------------------
|-0--------------------5---------------7----------0----------------------------
 And this apartment is starving for an argument.  Anything at all to break the 

--------------------------
--------------------------
-7------------0h2---------
-5----------0-------0-4h5-
-5--------2-------0-------
-5------------------------
 silence

Verse
|-------------------------------------------------------------------------------
|-------------------------------------------------------------------------------
|-7-----------------------------14-------------------11---------------9---------
|-4-----------------------------11-------------------9----------------7---------
|-5-----------------------------12-------------------9----------------7---------
|-0-----------------------------0--------------------9----------------7---------
 Wandering this house like I've never wanted out and this is about as social as 

---------
---------
--7------
--5------
--5------
--5------
I get now

|--------------------------------------------------------------------------
|--------------------------------------------------------------------------
|-7-------------------------------------------14---------------------------
|-4-------------------------------------------11---------------------------
|-5-------------------------------------------12---------------------------
|-0-------------------------------------------0----------------------------
 And I'm throwing away that letters that I am writing you 'cause they would 

---------------------------------------
---------------------------------------
-11-------9---------7---------9--------
-9--------7---------5---------7--------
-9--------7---------5---------7--------
-9--------7---------5---------7--------
 never do, I would never do', never....

Chorus
|-------------------------------------------------------------------------------
|-------------------------------------------------------------------------------
|-7-------------------------------------7------------7--------------7-----------
|-4-------------------------------------5------------7--------------4-----------
|-5-------------------------------------5------------7--------------5-----------
|-0-------------------------------------5------------7--------------0-----------
 Waiting here with hopes the phone will ring and I'm thinking awful things and 

------------------------------------------------------
------------------------------------------------------
-------------------------------7----------0h2---------
-------------------------------5--------0-------0-4/5-
-------------------------------5------2-------0-------
-------------------------------5----------------------
I'm pretty sure that few would notice
[ Tab from: http://www.guitartabs.cc/tabs/d/dashboard_confessional/saints_and_sailors_tab_ver_3.html ]
|-------------------------------------------------------------------------------
|-------------------------------------------------------------------------------
|-7--------------------7---------------7----------7----------------------------
|-4--------------------5---------------7----------4----------------------------
|-5--------------------5---------------7----------5----------------------------
|-0--------------------5---------------7----------0----------------------------
 And this apartment is starving for an argument.  Anything at all to break the 

--------------
--------------
-7----------9-
-5----------7-
-5----------7-
-5----------7-
 silence

Bridge
|----------------------------------------------------------------------------------
|--------------------------------------------------------------8------------7------
|-----------------------------------11-----------9-------------7------------6------
|-12------------12------------------12-----------11------------5------------7------
|-9-------------10------------------9------------7--------------------------0------
|-9-------------10-----------------------------------------------------------------
 So don't be a liar don't say that "everything's working" when everything's broken.

|----------------------------------------------------------------------------------------
|---------0-------------------------------------------------------------------------7--0-
|---------7------------------------------------------------------11-----------9-----6--7-
|---------6-------------------------12---------------------------12-----------11----7--6-
|---------7-------------------------10---------------------------9------------7-----0--7-
|-----------------------------------10---------------------------------------------------
 And you smile like a saint but you curse like a sailor and your eyes say the jokes on me


|---------------------------------------------------------------------------
|---------------------------------------------------------------------------
|---------------------------------------------------------------------------
|-9----------------7-------------------5--------------7-------------9-------
|-9----------------7-------------------5--------------7-------------9-------
|-9----------------7-------------------5--------------7-------------9-------
 I'm not laughing, you're not leaving, who do I think I am kidding? when I'm 

--------------------------------
--------------------------------
--------------------------------
---------7------------------5---
---------7------------------5---
---------7------------------5---
the only one locked in this cell

Chorus
|------------------------------------------------------------------------------
|------------------------------------------------------------------------------
|-7-------------------------------------7------------7--------------7----------
|-4-------------------------------------5------------7--------------4----------
|-5-------------------------------------5------------7--------------5----------
|-0-------------------------------------5------------7--------------0---------- 
 Waiting here with hopes the phone will ring and I'm thinking awful things and 

------------------------------------------------------
------------------------------------------------------
-------------------------------7----------0h2---------
-------------------------------5--------0-------0-4/5-
-------------------------------5------2-------0------- 
-------------------------------5----------------------
I'm pretty sure that few would notice

|------------------------------------------------------------------------------
|------------------------------------------------------------------------------
|-7--------------------7---------------7----------7----------------------------
|-4--------------------5---------------7----------4----------------------------
|-5--------------------5---------------7----------5----------------------------
|-0--------------------5---------------7----------0----------------------------
 And this apartment is starving for an argument.  Anything at all to break the 

-------------------------
-------------------------
-7----------0h2----------
-5--------0--------0-4/5-
-5------2--------0-------
-5-----------------------
 silence

Bridge
|----------------------------------------------------------------------------------
|--------------------------------------------------------------8------------7------
|-----------------------------------11-----------9-------------7------------6------
|-12------------12------------------12-----------11------------5------------7------
|-9-------------10------------------9------------7--------------------------0------
|-9-------------10-----------------------------------------------------------------
 So don't be a liar don't say that "everything's working" when everything's broken.

|----------------------------------------------------------------------------------------
|-----------------------------------------------------------------------------------7--0-
|----------------------------------------------------------------11-----------9-----6--7-
|----------12-----------------------12---------------------------12-----------11----7--6-
|----------9------------------------10---------------------------9------------7-----0--7-
|----------9------------------------10---------------------------------------------------
 And you smile like a saint but you curse like a sailor and your eyes say the jokes on me

|--------------------------- 
|--------------------------- 
|-7----------0h2----------7- 
|-6--------0--------0-4/5-4- 
|-7------2--------0-------5- 
|-0-------------7---------0-

I updated the tab to follow the lyrics and to be more accurate, hope you've enjoyed.
any questions? andrewbiles@hotmail.com
Comments