Dashboard Confessional - Remember To Breathe Guitar Chords & Tabs

 

Remember To Breathe Guitar Chords & Tabs

Dashboard Confessional Chords & Tabs

Version: 1 Type: Tab 0 ratings
1 star 2 stars 3 stars 4 stars 5 stars
comments

Remember To Breathe Guitar Tab

Dashboard Confessional
Remember to Breathe second guitar
EbAbDbGbBbEb


|--------0--------9----------0---------------------------0------| 
|--------------------0--------------------------------4---------| 
|-----8-------8-----------8-----9/119--96----6----------------| 
|--9-------9-----------9----------------------------------------| 
|---------------------------------------------------------------| 
|---------------------------------------------------------------| 

|----------0-----9-----------9-----------9--------11----9-------| 
|------4------------12---------12----------12------------12-----| 
|--6---------9------------9------------9------------------------| 
|---------------------------------------------------------------| 
|---------------------------------------------------------------| 
|---------------------------------------------------------------| 

"...Always look perfect" 
|---------------------------------------------------------------| 
|---------------------------------4-----------------------------| 
|---------------------------------------6-----------------------| 
|---------------------------------------------------------------| 
|---------------------------------------------------------------| 
|---------------------------------------------------------------| 

"... never to MUUUCHHHH" 
|---------------------------------------------------------------| 
|------------0-----------0-------0---------0--------0------0----| 
|--------9-----------9------------------9---------9-------------| 
|---11----------11---------11-----11--------11-------11---------| 
|---------------------------------------------------------------| 
|---------------------------------------------------------------| 

|------9------------9---------------------0---------------------| 
|----------12----------12-------------4-----5-------------------| 
|----------------9------------------6---------------------------| 
|---------------------------------------------------------------| 
|---------------------------------------------------------------| 
|---------------------------------------------------------------| 
[ Tab from: http://www.guitartabs.cc/tabs/d/dashboard_confessional/remember_to_breathe_guitar_tab.html ]
"... I try on my blue shirt..." 
|---------------------------------------------------------------| 
|-------4--5----------------------------------------------------| 
|---------------------------------------------------------------| 
|---------------------------------------------------------------| 
|---------------------------------------------------------------| 
|---------------------------------------------------------------| 

"..she wonders what I'll wear..." 
|-----------0----------0---------0------------------------------| 
|-------4----------4---------4----------------------------------| 
|---6----------6---------6--------------------------------------| 
|---------------------------------------------------------------| 
|---------------------------------------------------------------| 
|---------------------------------------------------------------| 

"...some sneekers or flipflops..." 
|---------------------9-----9----7------------------------------| 
|----9------9-----9---------------------------------------------| 
|-9-----9------9--------------------9---------------------------| 
|---------------------------------------------------------------| 
|---------------------------------------------------------------| 
|---------------------------------------------------------------| 

".. I'm starting to panic... wait wait" 
|---12---11---9---7---------------------------------------------| 
|---------------------------------------------------------------| 
|---------------------------------------------------------------| 
|---------------------------------------------------------------| 
|---------------------------------------------------------------| 
|---------------------------------------------------------------| 

On.. "to....BREATHE" (this is much faster picking) 
|--12--------12-------12------12--------11-------11-------------| 
|------9---------9--------9--------9----------9--------9--------| 
|---------9---------9--------9--------9----------9--------9-----| 
|---------------------------------------------------------------| 
|---------------------------------------------------------------| 
|---------------------------------------------------------------| 

|--9---------9--------------------------------------------------| 
|------9--------9-----------------------------------------------| 
|----------9-------9--------------------------------------------| 
|---------------------------------------------------------------| 
|---------------------------------------------------------------| 
|---------------------------------------------------------------| 
Comments