Dashboard Confessional - Rapid Hope Loss Chords & Tabs

 

Rapid Hope Loss Chords & Tabs

Dashboard Confessional Chords & Tabs

Version: 2 Type: Tab 0 ratings
1 star 2 stars 3 stars 4 stars 5 stars
comments

Rapid Hope Loss Tab

Intro
eb|-----------------------------------------------------------------4------|
Bb|-6-----6------6------6-----6------7-----7-----7-----7--------------4--2-|
Gb|----6-----6-------6-----6-----6-------6----6------6----6----4--6--------|
Db|----------------------------------------------------------3-------------|
Ab|------------------------------------------------------------------------|
Eb|------------------------------------------------------------------------|
Verse
eb|------------------------------------------------------------------------|
Bb|------------------------------------------------------------------------|
Gb|-6----------3--8-------6-4--3-------------------------------------------|
Db|-6---6---3--3--8---4---6-4--3--4--6-------------------------------------|
Ab|-4---6---3--1--6---4---4-2--1--4--6-------------------------------------|
Eb|-----4---1---------2-----------2--4-------------------------------------|
Chorus
eb|-----------------------------|
Bb|-----------------------------|
Gb|-6--8-----4------------------|
Db|-6--8--3--4------------------|
Ab|-4--6--3--2------------------|
Eb|-------1---------------------|
Bridge
eb|-----------------------------|
Bb|-----------------------------|
Gb|--6--3-----8-----------------|
Db|--6--3--4--8-----------------|
Ab|--4--1--4--6-----------------|
Eb|--------2--------------------|
[ Tab from: http://www.guitartabs.cc/tabs/d/dashboard_confessional/rapid_hope_loss_tab_ver_2.html ]
Comments