Dashboard Confessional - Living In Your Letters Chords & Tabs

 

Living In Your Letters Chords & Tabs

Dashboard Confessional Chords & Tabs

Version: 3 Type: Tab 0 ratings
1 star 2 stars 3 stars 4 stars 5 stars
comments

Living In Your Letters Tab

whats up every body, this is my first tab so give me a little credit in playing it so 
ya go! if you have any questions email me at emericadude00@yahoo.com

Tuning: Dd Ad Dd Dd Dd d

I didnt put the srumming pattern in it, but just lisson to the song and its really fun 
play with!! good luck.


Intro:

E-------0------------------ 0------------------------------0----------|
B-------0------------------ 0------------------------------0----------|
G-------0------------------ 0------------------------------0----------|
D-------7------------------ 7------------------------------10---------|
A-------0------------------ 4------------------------------9----------|
E-------0------------------ x------------------------------x----------|
always assuming the worst, but your going on none the less,

E-----------------------------------0-----0-------0----------------|
B-----------------------------------0-----0-------0----------------|
G-----------------------------------0-----0-------0----------------|
D-----------------------------------5-----7-------0----------------|
A-----------------------------------7-----9-------4----------------|
E-----------------------------------x-----x-------x----------------|
and theres nothing to cushion your heart led fall,


E-0-----------------------0----------------------------0--------------|
B-0-----------------------0----------------------------0--------------|
G-0-----------------------0----------------------------0--------------|
D-7-----------------------7----------------------------10-------------|
A-0-----------------------4----------------------------9--------------|
E-x-----------------------x----------------------------x--------------|
Letters from further away, keep pulling me close to home,


E-0-----------------------------------0----------0------------------|
B-0-----------------------------------0----------0------------------|
G-0-----------------------------------0----------0------------------|
D-5-----------------------------------7----------0------------------|
A-7-----------------------------------9----------4------------------|
E-x-----------------------------------x----------x------------------|
and theres something to cushion my callous sighs,

E-0-------------------0-----------------------------0-----------------|
B-0-------------------0-----------------------------0-----------------|
G-0-------------------0-----------------------------0-----------------|
D-7-------------------7-----------------------------10----------------|
A-0-------------------4-----------------------------9-----------------|
E-x-------------------x-----------------------------x-----------------|
  I know that you hope for, longer goooooooooooood-byes

E-0--------------------------0----------0---------0-------------------|
B-0--------------------------0----------0---------0-------------------|
G-0--------------------------0----------0---------0-------------------|
D-5--------------------------7----------0---------7-------------------|
A-7--------------------------9----------4---------0-------------------|
E-x--------------------------x----------x---------x-------------------|
  embracing for forever, and falling in your eyes,

E---------0---------------0----------------0---------------0-----0------|
B---------0---------------0----------------0---------------0-----0------|
G---------0---------------0----------------0---------------0-----0------|
D---------7---------------10---------------5---------------7-----0------|
A---------4---------------9----------------7---------------9-----4------|
E---------x---------------x----------------x---------------x-----x------|
 in your eyes, in your eyes,

E-0-------4-----------5----4-----------------2---------------|
B-0-------4-----------5----4-----------------2---------------|
G-0-------4-----------5----4-----------------2---------------|
D-7-------7-----------7----0-----------------0---------------|
A-0-------4-----------5--- 0-----------------0---------------|
E-x-------4-----------5----0-----------------0---------------|
 Pouring over photographs, im living in your letters

E--0----------------------4---------------------------------5--------|
B--0----------------------4---------------------------------5--------|
G--0----------------------4---------------------------------5--------|
D--7----------------------7---------------------------------7--------|
A--0----------------------4---------------------------------5--------|
E--x----------------------4---------------------------------5--------|
 Breathe deeply from this envelope that smells like you and i,

E------------4---------------2------------------0---------------4-----|
B------------4---------------2------------------0---------------4-----|
G------------4---------------2------------------0---------------7-----|
D------------0---------------0------------------7---------------4-----|
A------------0---------------0------------------0---------------4-----|
E------------0---------------0------------------x---------------4-----|
cant be with out that scent, its filling me wth all you mean to me,
[ Tab from: http://www.guitartabs.cc/tabs/d/dashboard_confessional/living_in_your_letters_tab_ver_3.html ]
E-5----------4-----2-------------------------------------------------|
B-5----------4-----2-------------------------------------------------|
G-5----------4-----2-------------------------------------------------|
D-7----------0-----0-------------------------------------------------|
A-5----------0-----0-------------------------------------------------|
E-5----------0-----0-------------------------------------------------|
  toooo me,

E-0--------------------------0---------------------------0----------------|
B-0--------------------------0---------------------------0----------------|
G-0--------------------------0---------------------------0----------------|
D-7--------------------------7---------------------------10---------------|
A-0--------------------------4---------------------------9----------------|
E-x--------------------------x---------------------------x----------------|
 countinulling failing these trials, but you stand by me none the less

E-------------------0-------------------------------0-------0-------|
B-------------------0-------------------------------0-------0-------|
G-------------------0-------------------------------0-------0-------|
D-------------------5-------------------------------7-------0-------|
A-------------------7-------------------------------9-------4-------|
E-------------------x-------------------------------x-------x-------|
 and you wont let me sink though im begging you, im begging you

E-0-----------------------0-----------------------0-------------------|
B-0-----------------------0-----------------------0-------------------|
G-0-----------------------0-----------------------0-------------------|
D-7-----------------------7-----------------------10------------------|
A-0-----------------------4-----------------------9-------------------|
E-x-----------------------x-----------------------x-------------------|
 Phone calls from further away and messages on my machine,

E------------------------------0--------0-----0----------------------|
B------------------------------0--------0-----0----------------------|
G------------------------------0--------0-----0----------------------|
D------------------------------7--------7-----0----------------------|
A------------------------------5--------9-----4----------------------|
E------------------------------x--------x-----x----------------------|
 but i dont ever tell you this distance seems terrible,

E-0------------------------0-------------------0----------------------|
B-0------------------------0-------------------0----------------------|
G-0------------------------0-------------------0----------------------|
D-7------------------------7-------------------10---------------------|
A-0------------------------4-------------------9----------------------|
E-x------------------------x-------------------x----------------------|
 theres no need to test my heart, with useless space,

E------------------0-----------------0------0------------------------------|
B------------------0-----------------0------0------------------------------|
G------------------0-----------------0------0------------------------------|
D------------------5-----------------7------0------------------------------|
A------------------7-----------------9------4------------------------------|
E------------------x-----------------x------x------------------------------|
 these roads go on forever, there'll always be a place for you in my heart

E-7----------------------5-------------------------2-------5--4--------|
B-0----------------------0-------------------------0-------0--0--------|
G-0----------------------0-------------------------0-------0--0--------|
D-0----------------------0-------------------------0-------0--0--------|
A-0----------------------0-------------------------0-------0--0--------|
E-7----------------------5-------------------------2-------5--4--------|
 so ill hit the pavement its got to be better than waiting,

E-7----------5--------------2--------5--4------------------------------|
B-0----------0--------------0--------0--0------------------------------|
G-0----------0--------------0--------0--0------------------------------|
D-0----------0--------------0--------0--0------------------------------|
A-0----------0--------------0--------0--0------------------------------|
E-7----------5--------------2--------5--4------------------------------|
 pushing you far away cause im scared,

E-7-------------5-----------2-----------------------5--4--------------|
B-0-------------0-----------0-----------------------0--0--------------|
G-0-------------0-----------0-----------------------0--0--------------|
D-0-------------0-----------0-----------------------0--0--------------|
A-0-------------0-----------0-----------------------0--0--------------|
E-7-------------5-----------2-----------------------5--4--------------|
 so ill take my chances and head on my way up there,

E-7-------------------5----------------------------2--------5--4-------|
B-0-------------------0----------------------------0--------0--0-------|
G-0-------------------0----------------------------0--------0--0-------|
D-0-------------------0----------------------------0--------0--0-------|
A-0-------------------0----------------------------0--------0--0-------|
E-7-------------------5----------------------------2--------5--4-------|
 cause turning to you is like falling in love when your ten,

E-----7-<12>-<7>---0-------------------------------------------------------|
B-----0-<12>-<7>---0-------------------------------------------------------|
G-----0-<12>-<7>---0-------------------------------------------------------|
D-----0-<12>-<7>---4-------------------------------------------------------|
A-----0-<12>-<7>---5-------------------------------------------------------|
E-----7-<12>-<7>---0-------------------------------------------------------|

there ya go, theres the tab its a really good song so i hope you enjoy it!!!!!!!
Comments