Dashboard Confessional - Jamie Weezer Cover Chords & Tabs

 

Jamie Weezer Cover Chords & Tabs

Dashboard Confessional Chords & Tabs

Version: 1 Type: Tab 0 ratings
1 star 2 stars 3 stars 4 stars 5 stars
comments

Jamie Weezer Cover Tab

Dashboard Confessional - Jamie (Weezer Cover)

Okay - I got this about as close as I can, yes, there are a few errors, but it's good enough for all 
and purposes :-)
Any corrections are welcome (infact, they're encouraged):

	Bob - rpost@zoominternet.net

Eb-------------------------|
Bb-------------------------|
Gb-------------------------|
Db--5----5-5-5---0-0---0---|    Figure 1
Ab--5----5-5-5---0-0---0---|
Db--5----5-5-5---0-0---0---|

Eb--------------------------------|
Bb--------------------------------|
Gb--------------------------5-5-5-|
Db--5--5-5--0--0-0--2--2-2--5-5-5-|      Figure 2
Ab--5--5-5--0--0-0--2--2-2--3-3-3-|
Db--5--5-5--0--0-0--2--2-2--------|


----------------------------------|
----------------------------------|
--7-9--9-9-9--7-7-7--5-5--4-4-----|
------------------------------5---|     Figure 3 (fill)
--5-7--7-7-7--5-5-5--3-3--2-2-5---|
------------------------------5---|

-------------------------------------------------------------|
-------------------------------------------------------------|
-------------7-7-7-7-7-7-4-4-4-4-4-4-5-5-5-5-5-5-------------|
-5-5-5-5-5-5-7-7-7-7-7-7-4-4-4-4-4-4-5-5-5-5-5-5    Figure 4-|
-5-5-5-5-5-5-5-5-5-5-5-5-2-2-2-2-2-2-3-3-3-3-3-3-------------|
-5-5-5-5-5-5-------------------------------------------------|

------------------------------------------------------------------|
-8-8-10-12-10-8--8-8--10-12-10-8--8-8-10-12-10-8--8s10s8--8s10s8--|
------------------------------------------------------------------|
-5-5-7--9--7--5--5-5--7--9--7--5--5-5-7--9--7--5--5s7s5---5s7s5---|     Figure 5
------------------------------------------------------------------|
------------------------------------------------------------------|

Song Structure:

Hit Harmonic on 12th fret - all strings

[ Tab from: http://www.guitartabs.cc/tabs/d/dashboard_confessional/jamie_weezer_cover_tab.html ]
Figure 1 - 12 times During:
				Jamie, whatchu doin now, whatchu doin now girl
				Please please tell me cause i need to know I need to know now
Figure 2 - 2 times
				When I was down, ya came to me and promised you'd always be
				By my side now you're gone and Im waiting Patiently
Figure 1 - 2 times
				Jamie, I want you to know
Figure 3 - 1 time
Figure 4 - 2 times
				Jamie Oh Jamie, Im so glad you're mine, We'll be together a long time
Figure 1 - 12 times
				Hoo... Hoo... Hoo.. Hoo.. Jamie whatchu doin now, dialin your carphone
				Please please be true you know that I trust you do that what you must do
Figure 2 - 2 times
				When I was down came to me,and promised to always be
				By my side now you're gone and I'm waiting patiently
Figure 1 - 2 times
				Jamie, I want you to know...
Figure 3 - 1 time
Figure 4 - 4 times
				Jamie oh Jamie, Im so glad you're mine
				We'll be together a long time
				You've got the Beach Boys
				Your friends got the Stones
				But I know you won't lead me along
Figure 2 - 1 time
				Sometimes it seems you're not with me
Figure 1 - 2 times
				It hurts me so much, It hurts me so much
Figure 2 - 1 time
				Sometimes it seems you're not with me
Figure 1 - 2 times
				It hurts me so much, It hurts me so much
Figure 5 - 2 times
("solo" over top of Figure 1 repeated 8 times)
Figure 2 - 4 times
				You are the most you're so bad you're so fresh and Im so glad
				I am yours you are mine, show me where and I will sign
				When I was down ya came to me and promised you'd always be
				By my side now you're gone and I'm waiting waiting
Figure 4 - 4 times
				Jamie Oh Jamie Im so glad you're mine (so glad you're mine)
				We'll be together a long time
				Jamie, believe me I wont let you down
				'Cause you are the best lawyer in town
Figure 2 - 1 time
				Sometimes it seems, you're not with me
Figure 1 - 2 times
				It hurts me so much, It hurts me so much
Figure 2 - 1 time
				Sometimes it seems, you're not with me
Figure 1 - 4 times
				It hurts me so much, It hurts me so much
				It hurts me so much, It hurts me so much
Figure 3 - 1 time
Figure 1 - 2 times
				Hoo... Hoo..
Figure 3 - 1 time
Comments