Dashboard Confessional - Hold On Chords & Tabs

 

Hold On Chords & Tabs

Dashboard Confessional Chords & Tabs

Version: 1 Type: Tab 0 ratings
1 star 2 stars 3 stars 4 stars 5 stars
comments

Hold On Tab

Verse: 

e------0---------------------0--------------------------
B---------2-----0---2------------2------0h2p0-----------
G----------------------------------------------2-------- 
D-------------------------------------------------------
A--0---------0----0-------------------------------------
E------------------------2-----------2------------------

e------------------------------------------------------- 
B------3----------3------------3---------3--------------
G---------2----------2----2-------2----------2------2---
D------------------------------------------------------- 
A------------------------------------------------------- 
E---3---------3---------3---2----------2---------2------

Times 4

Chorus:
[ Tab from: http://www.guitartabs.cc/tabs/d/dashboard_confessional/hold_on_tab.html ]
e-----5-------2--5--------5------2---5---------9---------9--------9--------9 
B----------------------------------------------------7------------------7--- 
G--------------------------------------------------------------------------- 
D--0-------0---------------------------------------------------------------- 
A------------------4--------4------------9-------9------------7-----7-------
E--------------------------------------------------------------------------- 

Something like this.

e------9-------9--------9-----------9-/-------5-------2--5--------2-----2--2 
B-------7---------------------7----/---------------------------------------- 
G--------------------------------------------------------------------------- 
D--------------------------------------------------------------------------- 
A--7------7--------6-------6-------------0------0------------2-------2------
E--------------------------------------------------------------------------- 

And Finally! This:

e----------------------------------------------------------------5-------- 
B-------5------7--5--------5------7--5-------5------7--5-----5------- 
G---------------------------------------------------------------7-------- 
D---------------------------------------------------------------7-------- 
A---0-------0---------0--------0----------0------0------------0-------- 
E------------------------------------------------------------------------ 

Let me know what you think, I think it's pretty close.
Comments