Dashboard Confessional - Hey Girl Chords & Tabs

 

Hey Girl Chords & Tabs

Dashboard Confessional Chords & Tabs

Version: 1 Type: Tab 0 ratings
1 star 2 stars 3 stars 4 stars 5 stars
comments

Hey Girl Tab

This is Hey Girl.  I go this off dashtabs.com to get this since this place didn't have 
Girl.  So here you go.

Intro
--2------|
--4------|
--4------|
---------|
 --------|
---------|


Guitar 2
------------|
--4-2-5-4---|
--4-3-2-2---|
------------|
------------|
------------|

[ Tab from: http://www.guitartabs.cc/tabs/d/dashboard_confessional/hey_girl_tab.html ]
Verse
--0--0--0--0------|
--4--4--4--4------|
--4--4--4--4------|
--x--x--2--x------|
--2--4--0--4------|
------------------|


Chorus
--0--0--0--0-----|
--0--0--0--0-----|
--4--6--0--6-----|
--4--6--7--6-----|
--2--4--7--4-----|
---------5-------|

He might play an E instead of a C# for the first time on the chorus
Comments