Dashboard Confessional - Hands Down Chords & Tabs

 

Hands Down Chords & Tabs

Dashboard Confessional Chords & Tabs

Version: 8 Type: Tab 0 ratings
1 star 2 stars 3 stars 4 stars 5 stars
comments

Hands Down Tab

   
-----------------------------------------------------------
           "Hands Down" by Dashboard Confessional
-----------------------------------------------------------
Tabbed by: SPIDERMAYN13 (Kevin A.)
Email: Kerriuga13@hotmail.com

Tuning: Half Step Down (Eb Ab Db Gb bb Eb)

Im pretty sure this is accurate... i watched the live video and zoomed in on
his hands, and im pretty sure this is what he plays.  by the way, this is for the
lead guitar, im not sure about the 2nd one.

|  *   palm mute
|  /   slide up
|  \   slide down

Intro
eb|-------------------------------------------|
Bb|-------------------------------------------|
Gb|-------1----------1-2----------------------|
Db|-----4---2------4----------4/6-------------| x3
Ab|---2----------2----------2-----------------|
Eb|-0----------0----------0-------------------|

eb|--------------------------|
Bb|--------------------------|
Gb|-------1---------4--------|
Db|-----4---2-------4--1-----|
Ab|---2----------2-----2-----|
Eb|-0----------0-------------|
[ Tab from: http://www.guitartabs.cc/tabs/d/dashboard_confessional/hands_down_tab_ver_8.html ]
Verse x3
eb|---------------------------------------------------|
Bb|---------------------------------------------------|
Gb|-1-11111111111111--6-666666666666--6-666666666666--|
Db|-2-22222222222222--6-666666666666--7-777777777777--|
Ab|-2-22222222222222--4-444444444444--7-777777777777--|
Eb|-------------------4-444444444444--5-555555555555--|
      **************    ************    ************
eb|----------------------------|
Bb|----------------------------|
Gb|------------7777--6666------|
Db|-9-999999---7777--7777------|
Ab|-9-999999---5555--5555------|
Eb|-7-777777-------------------|
      ******
 
Chorus x2 (listen for strumming pattern)
eb|----------------------------------------------------|
Bb|----------------------------------22222222222222----|
Gb|--11111111111111------------------22222222222222----|
Db|--22222222222222--66666666666666--22222222222222----|
Ab|--22222222222222--66666666666666--00000000000000----|
Eb|--00000000000000--44444444444444--------------------|
    "My hopes are so high..."
eb|------------------|
Bb|------------------|
Gb|------------------|
Db|--66666666666666--|
Ab|--66666666666666--|
Eb|--44444444444444--|


Outro (slow, rhythmic downstrokes)
eb|---------------------------------------------------|
Bb|---------------------------------------------------|
Gb|-6-6-6-6-6-6-6-6-----------------9-9-9-9-9-9-9-9---|
Db|-6-6-6-6-6-6-6-6-7-7-7-7-7-7-7-7-9-9-9-9-9-9-9-9---|
Ab|-4-4-4-4-4-4-4-4-7-7-7-7-7-7-7-7-7-7-7-7-7-7-7-7---|
Eb|-4-4-4-4-4-4-4-4-5-5-5-5-5-5-5-5-0-0-0-0-0-0-0-0---|
    "Hands down..."
eb|-------------------|
Bb|-------------------|
Gb|-8-8-8-8-8-8-8-8---|
Db|-9-9-9-9-9-9-9-9---|
Ab|-9-9-9-9-9-9-9-9---|
Eb|-7-7-7-7-7-7-7-7---|


End On:
eb|-------|
Bb|-------|
Gb|---1---|
Db|---2---|
Ab|---2---|
Eb|-------|


And that's it. have fun.


=============================================================
Comments