Dashboard Confessional - Hands Down Chords & Tabs

 

Hands Down Chords & Tabs

Dashboard Confessional Chords & Tabs

Version: 1 Type: Tab 2 ratings
1 star 2 stars 3 stars 4 stars 5 stars
comments

Hands Down Tab

   
Dashboard Confessional
Hands Down

EbAbDbGbBbEb

Intro 
eb:|-------------------------------------------------------| 
Bb:|-------------------------------------------------------| 
Gb:|------1---------1-2---------------1---------1-2--------| 
Db:|----4---2-----4---------4/6-----4---2-----4---------4/6| 
Ab:|--2---------2---------2-------2---------2---------2----| 
Eb:|0---------0---------0-------0---------0---------0------| 

eb:|------------------------------------------------| 
Bb:|------------------------------------------------| 
Gb:|-------1---------1-2----------------1-----------| 
Db:|-----4---2-----4---------4/6------4---2-----4-1-| 
Ab:|---2---------2---------2--------2---------2-2-2-| 
Eb:|-0---------0---------0--------0---------0-------| 


[ Tab from: http://www.guitartabs.cc/tabs/d/dashboard_confessional/hands_down_tab.html ]
Verse - 4x "Breathe in for luck..." 
eb:|----------------------------| 
Bb:|----------------------------| 
Gb:|-1--------------------------| 
Db:|-2----2----1----4----7----6-| 
Ab:|-2----4----0----2----7----7-| 
Eb:|-0-------------------5----5-| 



Chorus - 2x "My hopes are so high..." 
eb:|------4---------4----4----4-| 
Bb:|------4----2----4----4----4-| 
Gb:|-1----4----1----4----6----8-| 
Db:|-2----4----2----4----6----5-| 
Ab:|-2----6----0----6----4----6-| 
Eb:|-0----4---------4----4----4-| 

                    
Outro - 8x "Hands down.." 
eb:|------------------| 
Bb:|-5----------------| 
Gb:|-6----6----9------| 
Db:|-6----7----6----9-| 
Ab:|-4----7----7----6-| 
Eb:|------5---------7-| 

End Outro On 

eb:|-0-| 
Bb:|-0-| 
Gb:|-1-| 
Db:|-2-| 
Ab:|-2-| 
eb:|-0-|
Comments