Dashboard Confessional - Hands Down Chords & Tabs

 

Hands Down Chords & Tabs

Dashboard Confessional Chords & Tabs

Version: 2 Type: Bass Tab 0 ratings
1 star 2 stars 3 stars 4 stars 5 stars
comments

Hands Down Bass Tab

   
Dashboard Confessional - Hands Down
Tabbed By: Julius Samaniego (julius_s_15@hotmail.com)
Tuning:(Eb Ab Db Gb)

Intro: Guitar
 
Verse:
  Breathe in for luck, Breathe in so deep...
||--------------|-------------|-------------|-------------|
||--2--2--2--2--|-2--2--2--2--|-------------|-------------|
||--------------|-------------|-4--4--4--4--|-4--4--4--4--|
||--------------|-------------|-------------|-------------|
  This air is blessed, You share with me...
|-------------|-------------|-------------|--------------|
|-------------|-------------|-------------|--------------|
|-0--0--0--0--|-0--0--0--0--|-2--2--2--2--|-5--5--4--4---|
|-------------|-------------|-------------|--------------|
  This night is wild,  So calm and dull...
|--------------|-------------|-------------|-------------|
|--2--2--2--2--|-2--2--2--2--|-------------|-------------|
|--------------|-------------|-4--4--4--4--|-4--4--4--4--|
|--------------|-------------|-------------|-------------|
  These hearts they race from self-control...
|-------------|-------------|-------------|---------------|
|-------------|-------------|-------------|---------------|
|-0--0--0--0--|-0--0--0--0--|-2--2--2--2--|-5--5--4--4----|
|-------------|-------------|-------------|---------------|
  Your legs are smooth as they graze mine...
|-------------|-------------|-------------|--------------|
|-2--2--2--2--|-2--2--2--2--|-------------|--------------|
|-------------|-------------|-4--4--4--4--|-4--4--4--4---|
|-------------|-------------|-------------|--------------|
  We're doing fine,   We're doing nothing at all...
|-------------|-------------|------------|------||
|-------------|-------------|------------|------||
|-0--0--0--0--|-0--0--0--0--|-2----------|------||
|-------------|-------------|------------|------||

 
Chorus:
  My hopes are so high that your kiss might kill me...
|---------------|-------------------|-----------------|-------------------|
|----2--2-2-2-2-|-(2)--2--(2)-2-2---|-----------------|-------------------|
|---------------|-------------------|-----------------|----------------0--|
|-0-------------|-----------------4-|-(4)--4--4-4-4-4-|-(4)-4-4--4-4-4----|
  So won't you kill me, so I die happy...
|----------------|----------------|-----------------|------------------|
|----------------|----------------|-----------------|------------------|
|-(0)--0--0-0-0--|-0-0-0--0-0-----|-----------------|------------------|
|----------------|------------0-4-|-(4)--4--4-4-4-4-|-5-5-x-4-4-4-x-0--|
  My heart is yours to fill or burst...
|-----------------|-------------------|-----------------|-------------------|
|------2--2-2-2-2-|-(2)--2--(2)-2-2---|-----------------|-------------------|
|-----------------|-------------------|-----------------|----------------0--|
|-(0)-------------|-----------------4-|-(4)--4--4-4-4-4-|-(4)-4-4--4-4-4----|
  to break or bury, or wear as jewelery, Which ever you prefer...
|----------------|----------------|-----------------|--------------||
|----------------|----------------|-----------------|--------------||
|-(0)--0--0-0-0--|-0-0-0--0-0-----|-----------------|--------------||
|----------------|------------0-4-|-(4)--4--4-4-4-4-|-5--5--4--4---||

[ Tab from: http://www.guitartabs.cc/tabs/d/dashboard_confessional/hands_down_btab_ver_2.html ]
Verse:
  The words are hushed lets not get busted...
||--------------|-------------|-------------|-------------|
||--2--2--2--2--|-2--2--2--2--|-------------|-------------|
||--------------|-------------|-4--4--4--4--|-4--4--4--4--|
||--------------|-------------|-------------|-------------|
  just lay entwined here undiscovered...
|-------------|-------------|-------------|---------------|
|-------------|-------------|-------------|---------------|
|-0--0--0--0--|-0--0--0--0--|-2--2--2--2--|-5--5--4--4----|
|-------------|-------------|-------------|---------------|
  Safe in here from all the stupid questions...
|--------------|-------------|-------------|-------------|
|--2--2--2--2--|-2--2--2--2--|-------------|-------------|
|--------------|-------------|-4--4--4--4--|-4--4--4--4--|
|--------------|-------------|-------------|-------------|
  "hey did you get some?" Man, that is so dumb.... 
|-------------|-------------|-------------|---------------|
|-------------|-------------|-------------|---------------|
|-0--0--0--0--|-0--0--0--0--|-2--2--2--2--|-5--5--4--4----|
|-------------|-------------|-------------|---------------|
  Stay quiet, stay near, stay close...
|-------------|-------------|-------------|--------------|
|-2--2--2--2--|-2--2--2--2--|-------------|--------------|
|-------------|-------------|-4--4--4--4--|-4--4--4--4---|
|-------------|-------------|-------------|--------------|
  they can't hear, so we can get some...
|------------|----------|------------|-------||
|------------|----------|------------|-------||
|-0----------|----------|-2----------|-------||
|------------|----------|------------|-------||


Chorus:
  My hopes are so high that your kiss might kill me...
|---------------|-------------------|-----------------|-------------------|
|----2--2-2-2-2-|-(2)--2--(2)-2-2---|-----------------|-------------------|
|---------------|-------------------|-----------------|----------------0--|
|-0-------------|-----------------4-|-(4)--4--4-4-4-4-|-(4)-4-4--4-4-4----|
  So won't you kill me, so I die happy...
|----------------|----------------|-----------------|------------------|
|----------------|----------------|-----------------|------------------|
|-(0)--0--0-0-0--|-0-0-0--0-0-----|-----------------|------------------|
|----------------|------------0-4-|-(4)--4--4-4-4-4-|-5-5-x-4-4-4-x-0--|
  My heart is yours to fill or burst...
|-----------------|-------------------|-----------------|-------------------|
|------2--2-2-2-2-|-(2)--2--(2)-2-2---|-----------------|-------------------|
|-----------------|-------------------|-----------------|----------------0--|
|-(0)-------------|-----------------4-|-(4)--4--4-4-4-4-|-(4)-4-4--4-4-4----|
  to break or bury, or wear as jewelery, Which ever you prefer...
|----------------|----------------|-----------------|--------------||
|----------------|----------------|-----------------|--------------||
|-(0)--0--0-0-0--|-0-0-0--0-0-----|-----------------|--------------||
|----------------|------------0-4-|-(4)--4--4-4-4-4-|-5--5--4--4---||


Out-Chorus:
|-------------|--------------|-------------|---------------|
|-------------|--------------|-------------|---------------|
|-4--4--4--4--|-4--4--4--4-0-|-0--0--0--0--|-0--0--0--0----|
|-------------|--------------|-------------|------------0--|

|-------------|--------------|-------------|---------------|
|-------------|--------------|-------------|---------------|
|-------------|------------2-|-2--2--2--2--|-2--2--2-------|
|-0--0--0--0--|-0--0--0--0---|-------------|----------0-0--|

|-------------|--------------|-------------|---------------|
|-------------|--------------|-------------|---------------|
|-4--4--4--4--|-4--4--4--4-0-|-0--0--0--0--|-0--0--0--2/---|
|-------------|--------------|-------------|---------------|

|-------------|-------------|-------------|--------------|
|-------------|-------------|-------------|--------------|
|-7--7-----7--|----7--7--9--|-------------|----------2---|
|-------0-----|-0-----------|-7--7--7--7--|-7--7--0------|

|-------------|----------|--------------|-------------------|
|-------------|----------|--------------|-------------------|
|-4--4--4--4--|----------|-0--0--0--0-0-|-(0)--0-0-0-0-2/---|
|-------------|----------|--------------|-------------------|

|-----------|-----------|-----------|--------------|
|-----------|-----------|-----------|--------------|
|------7----|-7---------|-2----2----|-2--2--2------|
|-0---------|------0----|-----------|----------0---|

|-------------|--------------|-------------|---------------|
|-------------|--------------|-------------|---------------|
|-4--4--4--4--|-4--4--4--4-0-|-0--0--0--0--|-0--0--0--0----|
|-------------|--------------|-------------|------------0--|

|-------------|-------------|-------------|---------------|
|-------------|-------------|-------4-----|-4-------------|
|-------------|----------0--|-2--2-----2--|----2--2-------|
|-0--0--0--0--|-0--0--4-----|-------------|----------0-0--|

|--------------|--------------|--------------|---------------|
|--------------|--------------|--------------|---------------|
|-4--4--4--4-4-|-4--4--4--4-0-|-0--0--0--0-0-|-0--0--0--0-0--|
|--------------|--------------|--------------|---------------|

|-------------|---------------|---------------|-------------------|
|-------------|---------------|----9--7h9-7---|-------------------|
|-7--7-----7--|-7--7--7s9-9-9-|-------------9-|-(9)-7--6-6-7-7-6--|
|-------0-----|---------------|-7-------------|-------------------|

|--------------|---------------|--------------|---------------|
|--------------|-------1-1-2-2-|--------------|---------------|
|-4--4--4--4-4-|-4--4----------|-0--0--0--0-0-|-0--0--0--0-0--|
|--------------|---------------|--------------|---------------|

|--------------|--------------|-------------|---------------|
|--------------|--------------|-------------|---------------|
|-7--7--7--7-7-|-7--7--7--0-0-|-2--2--2--2--|-2--2--2-------|
|--------------|--------------|-------------|----------0-0--|

|--------------|---------------|--------------|--------------|
|--------------|---------------|--------------|-------1--2---|
|-4--4--4--4-4-|-4--4--4-4-4-4-|-0--0--0--0-0-|-0--0---------|
|--------------|---------------|--------------|--------------|

|----------|------------|--------|
|----------|------------|--------|
|----------|------------|--------|
|-0--------|-(0)--------|-(0)----|
Comments