Dashboard Confessional - Hands Down Acoustic Chords & Tabs

 

Hands Down Acoustic Chords & Tabs

Dashboard Confessional Chords & Tabs

Version: 2 Type: Tab 0 ratings
1 star 2 stars 3 stars 4 stars 5 stars
comments

Hands Down Acoustic Tab

artist: Dashboard Confessional
title: Hands Down (acoustic)
tabbed by:Hal McMahon comments/corrections----->halmcmahon@hotmail.com

standard tuning (eadgbe)

INTRO
e----------------------------------|
b----------------------------------|
g----------------------------------|
d--------4/6-2-----4/6/7-----4/6---|x3
a------2---------2---------2-------|
e----0---------0---------0---------|
END ON
e---------------|
b---------------|
g---------------|
d--------4-1----|
a------2-2-2----|
e----0----------|

1ST VERSE         
         Bereath in.. Luck, breath in..Deep this air... Blessed, you....
e-------------------------------------------------------------------------|
b-------------------------------------------------------------------------|
g--------------------------------------2-22222222222222-------------------|
d----2-22222222222222-6-66666666666666-2-22222222222222-4-44444444444444--|
a----2-22222222222222-4-44444444444444-0-00000000000000-2-22222222222222--|
e----0-00000000000000-x-xxxxxxxxxxxxxx------------------2-22222222222222--|
      [.....pm.......] [.....pm.......] [.....pm.......] [.....pm.......]
     
     Me, this night.. Wild so calm...  Dull these...... Race from self...
e-------------------------------------------------------------------------|
b-------------------------------------------------------------------------|
g--------------------------------------2-22222222222222-------------------|
d----2-22222222222222-6-66666666666666-2-22222222222222-4-44444444444444--|
a----2-22222222222222-4-44444444444444-0-00000000000000-2-22222222222222--|
e----0-00000000000000-x-xxxxxxxxxxxxxx------------------2-22222222222222--|
      [.....pm.......] [.....pm.......] [.....pm.......] [.....pm.......]

         Your legs... smooth as they.. mine, were doing  fine were...       
e------------------------------------------------------------|
b------------------------------------------------------------|
g--------------------------------------2-22222222222222------|
d----2-22222222222222-6-66666666666666-2-22222222222222--4---|
a----2-22222222222222-4-44444444444444-0-00000000000000--2---|
e----0-00000000000000-x-xxxxxxxxxxxxxx-------------------2---|
      [.....pm.......] [.....pm.......] [.....pm.......] 

CHORIS   
   all. my hopes... kill me.....  kill me so..  happy.
e-------------------44444444-444--00000000-000--44444444-------|
b-------------------44444444-444--00000000-000--44444444-------|
g-------------------44444444-444--44444444-444--44444444-------|
d--2---2222222-222--44444444-444--44444444-444--44444444-------|
a--2---2222222-222--66666666-666--00000000-000--66666666-6/7---|
e--0---0000000-000--44444444-444----------------44444444-4/5---|
       
       my heart...  burst to ...  burry or....  jewlery which ever u prefer.
e-------------------44444444-444--00000000-000--44444444444----|
b-------------------44444444-444--00000000-000--44444444444----|
g-------------------44444444-444--44444444-444--44444444444----|
d--2---2222222-222--44444444-444--44444444-444--44444444444----|
a--2---2222222-222--66666666-666--00000000-000--66666666666----|
e--0---0000000-000--44444444-444----------------44444444444----|

2ND VERSE
       the words are..busted just lay  intwined here un-discovered   
e-------------------------------------------------------------------------|
b-------------------------------------------------------------------------|
g--------------------------------------2-22222222222222-------------------|
d----2-22222222222222-6-66666666666666-2-22222222222222-4-44444444444444--|
a----2-22222222222222-4-44444444444444-0-00000000000000-2-22222222222222--|
e----0-00000000000000-x-xxxxxxxxxxxxxx------------------2-22222222222222--|
      [.....pm.......] [.....pm.......] [.....pm.......] [.....pm.......]

     safe inside..... questions hey..  get some? man... so dumb
e-------------------------------------------------------------------------|
b-------------------------------------------------------------------------|
g--------------------------------------2-22222222222222-------------------|
d----2-22222222222222-6-66666666666666-2-22222222222222-4-44444444444444--|
a----2-22222222222222-4-44444444444444-0-00000000000000-2-22222222222222--|
e----0-00000000000000-x-xxxxxxxxxxxxxx------------------2-22222222222222--|
      [.....pm.......] [.....pm.......] [.....pm.......] [.....pm.......]
[ Tab from: http://www.guitartabs.cc/tabs/d/dashboard_confessional/hands_down_acoustic_tab_ver_2.html ]
         stay quiet.. clear stay.....  hear. so we can get some   
e-----------------------------------------------------------|
b-----------------------------------------------------------|
g--------------------------------------2~-------------------|
d----2-22222222222222-6-66666666666666-2~--------------4~---|
a----2-22222222222222-4-44444444444444-0~--------------2~---|
e----0-00000000000000-x-xxxxxxxxxxxxxx-----------------2~---|
      [.....pm.......] [.....pm.......] 

  befor the choris
e----------------------|
b----------------------|
g----------------------|
d--7777777766666666----|
a--5555555555555555----|
e--5555555555555555----|

CHORIS
        my hopes... kill me.....  kill me so..  happy.
e-------------------44444444-444--00000000-000--44444444-------|
b-------------------44444444-444--00000000-000--44444444-------|
g-------------------44444444-444--44444444-444--44444444-------|
d--2---2222222-222--44444444-444--44444444-444--44444444-------|
a--2---2222222-222--66666666-666--00000000-000--66666666-6/7---|
e--0---0000000-000--44444444-444----------------44444444-4/5---|

       my heart...  burst to ...  burry or....  jewlery which ever u prefer.
e-------------------44444444-444--00000000-000--44444444444----|
b-------------------44444444-444--00000000-000--44444444444----|
g-------------------44444444-444--44444444-444--44444444444----|
d--2---2222222-222--44444444-444--44444444-444--44444444444----|
a--2---2222222-222--66666666-666--00000000-000--66666666666----|
e--0---0000000-000--44444444-444----------------44444444444----|

ENDER
      hands down... best day... ever remember.. always remember
e----4--------------5-----------x---------------7-------------------------|
b----5--------------5-----------x---------------7-------------------------|
g----6--------------6-----------9---------------8-------------------------|
d----6--------------7-----------9---------------9-------------------------|
a----4--------------7-----------7---------------9-------------------------|
e----4--------------5-----------x---------------7-------------------------|

     sound of the.. dim of the..scent of your.. twirled in your fingers        
e----4--------------5-----------x---------------7-------------------------|
b----5--------------5-----------x---------------7-------------------------|
g----6--------------6-----------9---------------8-------------------------|
d----6--------------7-----------9---------------9-------------------------|
a----4--------------7-----------7---------------9-------------------------|
e----4--------------5-----------x---------------7-------------------------|

     time on the clock when we realized its so late..walk that..together.
e----4444----------------------5---------------------x----------7----|
b----5555----------------------5---------------------x----------7----|
g----6666----------------------6---------------------9----------8----|
d----6666----------------------7---------------------9----------9----|
a----4444----------------------7---------------------7----------9----|
e----4444----------------------5---------------------x----------7----|

    ..streets...... gate was....jumped it and...let you in
e----4--------------5-----------x---------------7-------------------------|
b----5--------------5-----------x---------------7-------------------------|
g----6--------------6-----------9---------------8-------------------------|
d----6--------------7-----------9---------------9-------------------------|
a----4--------------7-----------7---------------9-------------------------|
e----4--------------5-----------x---------------7-------------------------|

    ..stood at....  hands on..  kissed me like..ment it.
e----4--------------5-----------x---------------7-------------------------|
b----5--------------5-----------x---------------7-------------------------|
g----6--------------6-----------9---------------8-------------------------|
d----6--------------7-----------9---------------9-------------------------|
a----4--------------7-----------7---------------9-------------------------|
e----4--------------5-----------x---------------7-------------------------|


     i knew....               ..ment it...      ment it          END ON
e----4--------------5-----------x---------------7--------------|----4------|
b----5--------------5-----------x---------------7--------------|----5------|
g----6--------------6-----------9---------------8--------------|----6------|
d----6--------------7-----------9---------------9--------------|----6------|
a----4--------------7-----------7---------------9--------------|----4------|
e----4--------------5-----------x---------------7--------------|----4------|
Comments