Dashboard Confessional - Ghost Of A Good Thing Chords & Tabs

 

Ghost Of A Good Thing Chords & Tabs

Dashboard Confessional Chords & Tabs

Version: 1 Type: Tab 0 ratings
1 star 2 stars 3 stars 4 stars 5 stars
comments

Ghost Of A Good Thing Tab

Dashboard Confessional - Ghost of a Good Thing

Intro/Verse
eb|------------------------------------------------------------------------|
Bb|------------------------------------------------------------------------|
Gb|-5-5-5-5----------------------------------------------------------------|
Db|-5-5-5-5--2-2-3-3--5-5/6-7-7--2-2--3-3-3-3------------------------------|
Ab|-3-3-3-3--2-2-3-3--5-5/6-7-7--2-2--3-3-3-3------------------------------|
Eb|----------0-0-1-1--3-3/4-5-5--0-0--1-1-1-1------------------------------|

Pre Chorus
eb|------------------------------------------------------------------------|
Bb|------------------------------------------------------------------------|
Gb|------------------------------------------------------------------------|
Db|-7-7-7-7--5-5-5-5--3-3-3-3--5-5-5-5-------------------------------------|
Ab|-7-7-7-7--5-5-5-5--3-3-3-3--5-5-5-5-------------------------------------|
Eb|-5-5-5-5--3-3-3-3--1-1-1-1--3-3-3-3-------------------------------------|
[ Tab from: http://www.guitartabs.cc/tabs/d/dashboard_confessional/ghost_of_a_good_thing_tab.html ]
Chorus
eb|------------------------------------------------------------------------|
Bb|------------------------------------------------------------------------|
Gb|-5-5-3-3-----------5-5-3-3---------5-5-3-3-----------5-5-3-3------------|
Db|-5-5-3-3-7-7--5-5--5-5-3-3-7-7-5-5-5-5-3-3---7-7-5-5-5-5-3-3--7---------|
Ab|-3-3-1-1-7-7--5-5--3-3-1-1-7-7-5-5-3-3-1-1---7-7-5-5-3-3-1-1--7---------|
Eb|---------5-5--3-3----------5-5-3-3-----------5-5-3-3----------5---------|

Bridge
eb|------------------------------------------------------------------------|
Bb|------------------------------------------------------------------------|
Gb|-5-5-5-5-5-5-5-5--------------------------------------------------------|
Db|-5-5-5-5-5-5-5-5-7-7----5-5-5-3-3-3-------------------------------------|
Ab|-3-3-3-3-2-2-2-2-7-7----5-5-5-3-3-3-------------------------------------|
Eb|-----------------5-5----3-3-3-1-1-1-------------------------------------|

Last Chorus
eb|------------------------------------------------------------------------|
Bb|------------------------------------------------------------------------|
Gb|-5-5-3-3------------5-5----------------5-5-3-3----------5-5-3-3---------|
Db|-5-5-3-3--7-7--5-5--5-5-2-2--3-3--5-5--5-5-3-3-7-7-5-5--5-5-3-3---7-----|
Ab|-3-3-1-1--7-7--5-5--3-3-2-2--3-3--5-5--3-3-1-1-7-7-5-5--3-3-1-1---7-----|
Eb|----------5-5--3-3------0-0--1-1--3-3----------5-5-3-3------------5-----|
Comments