Dashboard Confessional - For You To Notice Chords & Tabs

 

For You To Notice Chords & Tabs

Dashboard Confessional Chords & Tabs

Version: 4 Type: Tab 0 ratings
1 star 2 stars 3 stars 4 stars 5 stars
comments

For You To Notice Tab

Dashboard Confessional - For You to Notice
By;Andrew Mcshan(Guitarguyx182@aol.com)

Capo 2
[ Tab from: http://www.guitartabs.cc/tabs/d/dashboard_confessional/for_you_to_notice_tab_ver_4.html ]
Intro/Verse:
e|-0-------------------------------------------------------------------------|
B|-0----------2-0-2-4--------------------------------------------------------|
G|-0-------------------------------------------------------------------------|
D|-0-2-4---2-----------------------------------------------------------------|
A|-0-4-5-2-3-----------------------------------------------------------------|
E|-0-------------------------------------------------------------------------|
Pre Chorus:
e|-0-------------------------------------------------------------------------|
B|-0-------------------------------------------------------------------------|
G|-0-------------------------------------------------------------------------|
D|-0----4-5-7-7-11-5-7-------------------------------------------------------|
A|-0--2-5-7-9-9-12-7-9-------------------------------------------------------|
E|-0-------------------------------------------------------------------------|
Chorus
e|-0---0-0-0---0-0-0-0-0-0---------------------------------------------------|
B|-0---0-0-0---0-0-0-0-0-0---------------------------------------------------|
G|-0---0-0-0---0-0-0-0-0-0---------------------------------------------------|
D|-0---0-0-0---0-0-0-0-0-0---------------------------------------------------|
A|-0-5-2-2-2-7-4-4-4-5-5-5---------------------------------------------------|
E|-0---0-0-0---0-0-0-0-0-0---------------------------------------------------|
Comments