Dashboard Confessional - For You To Notice Chords & Tabs

 

For You To Notice Chords & Tabs

Dashboard Confessional Chords & Tabs

Version: 1 Type: Tab 0 ratings
1 star 2 stars 3 stars 4 stars 5 stars
comments

For You To Notice Tab

Intro/Verse:(repeat twice then words come in)      Verse2:
D----0-----0-----0------0----0-----0-----0-----0-|--------------------
A----0-----0-----0------0----0-----0-----0-----0-|--------------------
G----7-----7-----9-----11----7-----7-----9-----9-|--7/9/11/1211------
D---0-----0-----0-----0-----0-----0-----0-----0--|--0/0/0-/0--------
A--5-----5-----7-----9-----5-----5-----7-----7---|--5/7/9-/109-------
D------------------------------------------------|--------------------
                                                    "and I would be th

[ Tab from: http://www.guitartabs.cc/tabs/d/dashboard_confessional/for_you_to_notice_tab.html ]
                                        Pre-Chorus:
D-----0-----0----0-----0------0-----0-|---0--12---0--12---0-----------
A-----0-----0----0-----0------0-----0-|--14------12------10--9--10--12
G----11----11----9-----9-----11----11-|---0------11-------9-----------
D---0-----0-----0-----0-----0-----0---|-----------0-------0-----------
A--9-----9-----7-----7-----9-----9----|-------------------------------
D-------------------------------------|-------------------------------
  re every time you'd need me..."

 Chorus:(play once then words come in & once afer)      Finish: End On
D--0---------0/0----0---------0/0-------0---------0----| End   |--0--
A--0---------0/0----0---------0/0-------0---------0----| with  |--0--
G--6---------9/11---4---------9/11------9---------7----| Pre-  |--7--
D--0(x6)-----0/0----0(x6)-----0/0-------0(x8)-----7(x8)|Chorus |--0--
A--5---------7/9----5---------7/9-------7---------7----|       |--5--
D--0---------0/0----0---------0/0-------0---------0----|       |--0--
 "But for now i'll look so longingly..."
Comments