Dashboard Confessional - Ender Will Save Us All Chords & Tabs

 

Ender Will Save Us All Chords & Tabs

Dashboard Confessional Chords & Tabs

Version: 3 Type: Tab 0 ratings
1 star 2 stars 3 stars 4 stars 5 stars
comments

Ender Will Save Us All Tab

   
-------------------------------------------------------------------------------
			 ENDER WILL SAVE US ALL-Dasboard Confessional
-------------------------------------------------------------------------------
Tabbed by:Sarah
Email:milkmouth07@earthlink.net

me and my guitar teacher tabbed this...it's basically 100% correct. struming's not hard
to figure out. it looks really hard but there's just a lot of parts and it's easy if you
know the song. e-mail me with any questions/if you need help.

Tuning: drop-D and half a step down.
| h  hammer-on
| p  pull-off

Intro/Verse
e|-----------5-|
B|--7--5--x--5-|
G|--7--5--x--7-|
D|--7--5--7--7-|
A|--5--3--5--5-|
E|--0--0--5--0-|
(1x for intro, 2x's for verse)

Pre Chorus
(I wanna give you...)
e|--x--x---x--x---x--x---x--x--|
B|--x--x---x--x---x--x---x--x--|
G|--7--7---2--2---5--5---x--x--|
D|--7--7---2--2---5--5---5--5--|
A|--5--5---0--0---3--3---2--2--|
E|-----------------------------|

e|--x--x---x--x---x--x---x--x--|
B|--x--x---x--x---x--x---x--x--|
G|--7--7---x--x---5--5---x--x--|
D|--7--7---7--7---5--5---5--5--|
A|--5--5---4--4---3--3---2--2--|
E|-----------------------------|

Chorus 
(It's hard to explain how I am getting by...)
e|--x--x---x---x---x-----|
B|--x--x---x---x---x-----|
G|--7--7---x---5---x-----|
D|--7--7---7---5---5-----|
A|--5--5---4---3---2-----|
E|-----------------------|
(2x's)
[ Tab from: http://www.guitartabs.cc/tabs/d/dashboard_confessional/ender_will_save_us_all_tab_ver_3.html ]
(there's gotta be something...)
e|--x---x---x---x---|
B|--x---x---x---x---|
G|--7---x---x---x---|
D|--7---7---5---5---|
A|--5---4---3---2---|
E|------------------|
(2x's)

Bridge(6x's)
e|--x---x---x---x---x-----x---x--|
B|--x---x---x---x---x-----x---x--|
G|--7---7---7---7---7-----7---7--|
D|--7---7---7---7---7-----7---7--|
A|--5---x---5---x---x-----x---x--|
E|------9-------9---8-----9---8--|
(palm muted)

e|--x--x--|
B|--x--x--|
G|--7--7--|
D|--7--7--|
A|--x--x--|
E|--9--8--|

(everything up to this point repeats)

Ending
e|--x--x--x--x---x--x---x--x----x--x---x--x----x--x--x---x--|
B|--x--x--x--x---x--x---x--x----x--x---x--x----x--x--x---x--|
G|--x--x--x--x---x--x---x--x----x--x---x--x----x--x--x---7--|
D|--x--x--x--x---x--x---x--x----x--x---x--x----x--x--x---0--|
A|--9--9--9--9---9--10--9--0----9--10--9--0----7--9--10-----|
E|--0--0--0--0---0--0---0--0----9--9---9--0----8--8--8------|
(4x's...looks like alot but it moves fast)

(Try not to be...)
e|--x--x---x--------------x--x---x--x----x--x--x---x--|
B|--x--x---x--------------x--x---x--x----x--x--x---x--|
G|--x--x---x--------------x--x---x--x----x--x--x---7--|
D|--x--x---9-h-10-p-9-----x--x---x--x----x--x--x---0--|
A|--9--9---x----------0---9--10--9--0----7--9--10-----|
E|--0--0---x--------------9--9---9--0----8--8--8------|
(2x's)

Ending Chord
e|--x---|
B|--x---|
G|--x---|
D|--x---|
A|--9---|
E|--0---|


===============================================================================
Comments