Dashboard Confessional - Ender Will Save Us All Chords & Tabs

 

Ender Will Save Us All Chords & Tabs

Dashboard Confessional Chords & Tabs

Version: 2 Type: Tab 0 ratings
1 star 2 stars 3 stars 4 stars 5 stars
comments

Ender Will Save Us All Tab

   
Tuning:Eb Ab Db Gb Bb Eb

Key:
~=let note ring
PM . =palm mute note
s=slide
p=pull off

Intro:
Listen to CD for strumming patterns.

Eb ----------------------------------5---------------------|
Bb ----------------------------------5---------------------|
Gb ------7--------7------------------2---------------------|
Db ------7--------7---------5------------------------------|
Ab ------5--------3---------5------------------------------|
Eb -------------------------3------------------------------|

Verse:

Eb ----------------------------------------------------------------|
Bb ----------------------------------------------------------------|
Gb -7-----------------------7--------------------------------------|
Db -7-----------------------7------------------------------------5-|
Ab -5-----------------------3------------------------------------5-|
Eb --------------------------------------------------------------3-|
   Its just like you to contest you wear it like a label on your brest

Eb ------------------------------------5---------------------------|
Bb ------------------------------------5---------------------------|
Gb ------------------------------------2---------------------------|
Db ----------------------------------------------------------------|
Ab ----------------------------------------------------------------|
Eb ----------------------------------------------------------------|
   Don't you see what this takes of me?

Eb ----------------------------------------------------------------|
Bb ----------------------------------------------------------------|
Gb -7-----------------------7--------------------------------------|
Db -7-----------------------7------------------------------------5-|
Ab -5-----------------------3------------------------------------5-|
Eb --------------------------------------------------------------3-|
   A certain callousness complies with your charm & in your pride

Eb ------------------------------------5---------------------------|
Bb ------------------------------------5---------------------------|
Gb ------------------------------------2---------------------------|
Db ----------------------------------------------------------------|
Ab ----------------------------------------------------------------|
Eb ----------------------------------------------------------------|
   a hopeful look draped in dispise.

Chorus:

Eb ----------------------------------------------------------------|
Bb ----------------------------------------------------------------|
Gb -7-7~---------------------------------5-5~----------------------|
Db -7-7~--------------7-7~---------------5-5~----------------------|
Ab -5-5~--------------7-7~---------------3-3~----------------------|
Eb -------------------5-5~-----------------------------------------|
   I want to give you whatever you need. What is it you need?

Eb ------------------|
Bb ------------------|
Gb ------------------|
Db -5-5~-------------|
Ab -5-5~-------------|
Eb -3-3~-------------|
   Is it what I need?

Eb ----------------------------------------------------------------|
Bb ----------------------------------------------------------------|
Gb -7-7~---------------------------------5-5~----------------------|
Db -7-7~--------------7-7~---------------5-5~----------------------|
Ab -5-5~--------------7-7~---------------3-3~----------------------|
Eb -------------------5-5~-----------------------------------------|
   I want to give you whatever you need. What is it you need?

Eb ------------------|
Bb ------------------|
Gb ------------------|
Db -5-5~-------------|
Ab -5-5~-------------|
Eb -3-3~-------------|
   Is it within me?

Eb ----------------------------------------------------------------|
Bb ----------------------------------------------------------------|
Gb -7-7---------------------------5--------------------------------|
Db -7-7----------7----------------5-----------5--------------------|
Ab -5-5----------7----------------3-----------5--------------------|
Eb --------------5----------------------------3--------------------|
   Its hard to explain how I am getting by on so little from you.
[ Tab from: http://www.guitartabs.cc/tabs/d/dashboard_confessional/ender_will_save_us_all_tab_ver_2.html ]
Eb ----------------------------------------------------------------|
Bb ----------------------------------------------------------------|
Gb -7-7------------------------------5-----------------------------|
Db -7-7----------7-------------------5-------------5---------------|
Ab -5-5----------7-------------------3-------------5---------------|
Eb --------------5---------------------------------3---------------|
   Its hard to believe that I would let myself get so wrapped into you.

Eb -----------------------------------------------------------------|
Bb -----------------------------------------------------------------|
Gb ---7------------------------------5------------------------------|
Db ---7----------7-------------------5-------------------5----------|
Ab ---5----------7-------------------3-------------------5----------|
Eb --------------5---------------------------------------3----------|
Theres gotta be something that would be worth while that i could give to you

Eb ----------------------------------------------------------------|
Bb ----------------------------------------------------------------|
Gb -7--------------------------------5-----------------------------|
Db -7------------7-------------------5-------------5---------------|
Ab -5------------7-------------------3-------------5---------------|
Eb --------------5---------------------------------3---------------|
   We need a connection but you seem to push me far away from you.

Bridge:
  PM........     ........      ........     ..     ..
Eb ------------------------------------------------------------------|
Bb ------------------------------------------------------------------|
Gb -77777777-----44444444-------------------44-4---------------------|
Db -77777777-----44444444------55555555-----44-4---55-5--------------|
Ab -55555555-----22222222------55555555-----22-2---55-5--------------|
Eb ----------------------------33333333------------33-3--------------|

 PM........     ........      ........     ..     ..
Eb ------------------------------------------------------------------|
Bb ------------------------------------------------------------------|
Gb -77777777-----44444444-------------------44-4---------------------|
Db -77777777-----44444444------55555555-----44-4---55-5--------------|
Ab -55555555-----22222222------55555555-----22-2---55-5--------------|
Eb ----------------------------33333333------------33-3--------------|
   From you.....              From you.....

Eb ----------------------------------------------------------------|
Bb ----------------------------------------------------------------|
Gb -7--------------------------------------------------------------|
Db -7---------9------------------5---------9-5---------------------|
Ab -5---------9------------------5---------9-5---------------------|
Eb -----------7------------------3---------7-3---------------------|
   The harder I push the further I fall.

Eb ----------------------------------------------------------------|
Bb ----------------------------------------------------------------|
Gb -7--------------------------------------------------------------|
Db -7---------9------------------5---------9-5---------------------|
Ab -5---------9------------------5---------9-5---------------------|
Eb -----------7------------------3---------7-3---------------------|
   Well you don't mind me being headstrong.

Eb ----------------------------------------------------------------|
Bb ----------------------------------------------------------------|
Gb -7--------------------------------------------------------------|
Db -7---------9------------------5---------9-5---------------------|
Ab -5---------9------------------5---------9-5---------------------|
Eb -----------7------------------3---------7-3---------------------|
   But you don't want to sing along.

Eb ----------------------------------------------------------------|
Bb ----------------------------------------------------------------|
Gb -7--------------------------------------9-----------------------|
Db -7---------9------------------5---9-----9-----------------------|
Ab -5---------9------------------5---9-----7-----------------------|
Eb -----------7------------------3---7-----------------------------|
  Maybe its trite but I can always always always....... be wrong

Outro:
Eb ---------------------|
Bb ---------------------|
Gb ---------------------|
Db --444445404540345----|    4X
Ab --555555502220122----|
Eb ---------------------|

Eb -------------------------------|
Bb -------------------------------|
Gb -44---44-----------------------|
Db -44---44----4s5s4p0----4540345-|    2X
Ab -22---22---------------2220122-|
Eb -------------------------------|

End on:

Eb ----
Bb ----
Gb -7--
Db -7--
Ab -5--
Eb ----

Dang! I hope people like this cause it took forever to type up.
Questions, comments, corrections email me at jswanson_yo@hotmail.com
Comments