Dashboard Confessional - Ender Will Save Us All Chords & Tabs

 

Ender Will Save Us All Chords & Tabs

Dashboard Confessional Chords & Tabs

Version: 1 Type: Bass Tab 0 ratings
1 star 2 stars 3 stars 4 stars 5 stars
comments

Ender Will Save Us All Bass Tab

intro
G-----------------------------------------------------------------------|
B-----------------------------------------------------------------------|
A--5-5-5-5-5-5-5-5-3-3-3-3-3-3-3-3----------------------5(let ring)-----|
E----------------------------------3-3-3-3-3-3-3------------------------|3x


G-----------------------------------------------------------------------|
B-----------------------------------------------------------------------|
A--5-5-5-5-5-5-5-5-3-3-3-3-3-3-3-3----------------------5(let ring)-----|
E----------------------------------3-3-3-3-3-3-3------------------------|3x


G-----------------------------------------------------------------------|
B-----------------------------------------------------------------------|
A--5-5-5-5-5-5-5-5-3-3-3-3-3-3-3-3----------------------5(let ring)-----|
E----------------------------------3-3-3-3-3-3-3------------------------|3x

G-----------------------------------------------------------------------|
B-----------------------------------------------------------------------|
A--5-5---------0-0--------0/2-3-3------------------2-0-2-0-2-4---5-5----|
E-----------------------------------------3-3---------------------------|

[ Tab from: http://www.guitartabs.cc/tabs/d/dashboard_confessional/ender_will_save_us_all_btab.html ]
G--------------------------------------------|
B--------------------------------------------|
A-----0-0-------0/2-3-3----------2-0-2-0-2-4-|
E----------------------------3-3-------------|


G-------------------------------------------------------------------|
B-------------------------------------------------------------------|
A----5-5----0-----3-3-------------------5-5----0----3-3-------------|
E------------------------3-3------------------------------3-3-------|
                                   {----------2x--------------------|

G--------------------------------------------------------------------|
B--------------------------------------------------------------------|
A--5-5-5-5-5p-0-0-0-0-2/3-3-3-3-3------------------------------------|
E----------------------------------3-3-3-3-3-------------------------|
   ---------------------2x-------------------------------------------|


G------------------------------------------------------------------------|
B------------------------------------------------------------------------|
A-----------------5-5-5----5-3-3-3----3----------5-5-5-3-3-3-5-5-5-------|
E-----------------------------------------3-3-3--------------------------|
                  {--------repeat this a while---------------------------|
Comments