Dashboard Confessional - Drowning Chords & Tabs

 

Drowning Chords & Tabs

Dashboard Confessional Chords & Tabs

Version: 2 Type: Tab 0 ratings
1 star 2 stars 3 stars 4 stars 5 stars
comments

Drowning Tab

TABBER: Unknown
Dashboard Confessional
Drowning



EbAbDbGbBbEb

Verse 1: 

e----0-----------------0-------0------0-----------------0-------0------- 
B----1-----------------0-------1------1-----------------0-------1------- 
G----0-----------------0-------0------0-----------------0-------0------- 
D----3-----------------0-------2------3-----------------0-------2------- 
A----3-----------------2-------0------3-----------------2-------0------- 
E----x-----------------x-------x------x-----------------x-------x------- 

 
e----0---------------------0----0-------0---------------------0----0------- 
B----1---------------------0----1-------1---------------------0----1------- 
G----0---------------------0----0-------0---------------------0----0------- 
D----3---------------------0----2-------3---------------------0----2------ 
3----3---------------------2----0-------3---------------------2----0------- 
E----x---------------------x----x-------x---------------------x----x------- 


e----0----------------0-------0----0---------------------0----0------ 
B----1----------------0-------1----1---------------------0----1------- 
G----0----------------0-------0----0---------------------0----0------- 
D----3----------------0-------2----3---------------------0----2------- 
A----3----------------2-------0----3---------------------2----0------- 
E----x----------------x-------x----x---------------------x----x------- 


e----0---------------------------0-----------0------------0----------0---0---- 
B----1---------------------------0-----------1------------1----------0---1---- 
G----0---------------------------0-----------0------------0----------0---0---- 
D----3---------------------------0-----------2------------3----------0---2---- 
A----3---------------------------2-----------0------------3----------2---0---- 
E----x---------------------------x-----------x-------------x---------x---x---- 


e-----0---------------------------0---------------0--------0---------0----0--- 
B-----1---------------------------0---------------1--------1---------0----1--- 
G-----0---------------------------0---------------0--------0---------0----0--- 
D-----3---------------------------0---------------2--------3---------0----2--- 
A-----3---------------------------2---------------0--------3---------2----0--- 
E-----x---------------------------x---------------x--------x---------x----x--- 

Chorus 1: 

......time has been spread sooo thin 
e---x----------------x-------------0-------------- 
B---3----------------3-------------0-------------- 
G---0----------------2-------------1--------------- 
D---0----------------0-------------2--------------- 
A---2----------------0-------------2--------------- 
E---3----------------2-------------0--------------- 


e-------------x-------------x------1--------0------ 
B-------------3-------------3------1--------0------ 
G-------------0-------------2------2--------1------- 
D-------------0-------------0------3--------2------- 
A-------------2-------------0------3--------2------- 
E-------------3-------------2------1--------0------- 


e--------x------------------------------x--------------------------0----- 
B--------3------------------------------3--------------------------0----- 
G--------0------------------------------2--------------------------1----- 
D--------0------------------------------0--------------------------2----- 
A--------2------------------------------0--------------------------2----- 
E--------3------------------------------2--------------------------0----- 

e--------x------------------------------x---------------------1---------0---- 
B--------3------------------------------3---------------------1---------0---- 
G--------0------------------------------2---------------------2---------1---- 
D--------0------------------------------0---------------------3---------2---- 
A--------2------------------------------0---------------------3---------2---- 
E--------3------------------------------2---------------------1---------0---- 

Bridge 1: 

and you'll be sorry....
e--------------0-0-0-0-0-0--1-------------------------0-0-0-0-0-0--1---- 
B--------------1-1-1-1-1-1--1-------------------------1-1-1-1-1-1--1---- 
G--------------0-0-0-0-0-0--2-------------------------0-0-0-0-0-0--2---- 
D--------------2-2-2-2-2-2--3-------------------------2-2-2-2-2-2--3----- 
A--------------3-3-3-3-3-3--3-------------------------3-3-3-3-3-3--3----- 
E--------------0-0-0-3-0-3--1-------------------------0-0-0-3-0-3--1----- 


e-----0---0---0----0---0----0---1---------------------------0-0-0-0-0-0-1-- 
B-----1---1---1----1---1----1---1---------------------------1-1-1-1-1-1-1-- 
G-----0---0---0----0---0----0---2---------------------------0-0-0-0-0-0-2-- 
D-----2---2---2----2---2----2---3---------------------------2-2-2-2-2-2-3-- 
A-----3---3---3----3---3----3---3---------------------------3-3-3-3-3-3-3-- 
E-----0---0---0----3---0----3---1---------------------------0-0-0-3-0-3-1-- 


e---0-0-0-0-0-0-1-----------------0-0-0-0-0-0-1----- 
B---1-1-1-1-1-1-1-----------------1-1-1-1-1-1-1----- 
G---0-0-0-0-0-0-2-----------------0-0-0-0-0-0-2----- 
D---2-2-2-2-2-2-3-----------------2-2-2-2-2-2-3----- 
A---3-3-3-3-3-3-3-----------------3-3-3-3-3-3-3----- 
E---0-0-0-3-0-3-1-----------------0-0-0-3-0-3-1----- 


e-----0--0--0--0--0--0---1------------------0-0-0-0-0-0-1---------0---0--- 
B-----1--1--1--1--1--1---1------------------1-1-1-1-1-1-1---------0---1--- 
G-----0--0--0--0--0--0---2------------------0-0-0-0-0-0-2---------0---0--- 
D-----2--2--2--2--2--2---3------------------2-2-2-2-2-2-3---------0---2--- 
A-----3--3--3--3--3--3---3------------------3-3-3-3-3-3-3---------2---0--- 
E-----0--0--0--3--0--3---1------------------0-0-0-3-0-3-1---------x---x--- 

Verse 2:
[ Tab from: http://www.guitartabs.cc/tabs/d/dashboard_confessional/drowning_tab_ver_2.html ]
e----0---------------------0----0------0---------------------0----0------- 
B----1---------------------0----1------1---------------------0----1------- 
G----0---------------------0----0------0---------------------0----0------- 
D----3---------------------0----2------3---------------------0----2------ 
3----3---------------------2----0------3---------------------2----0------- 
E----x---------------------x----x------x---------------------x----x------- 


e----0----------------0-----0-----0---------------------0----0------ 
B----1----------------0-----1-----1---------------------0----1------- 
G----0----------------0-----0-----0---------------------0----0------- 
D----3----------------0-----2-----3---------------------0----2------- 
A----3----------------2-----0-----3---------------------2----0------- 
E----x----------------x-----x-----x---------------------x----x------- 


e------0------------------------0-----------0---------0----------0---0---- 
B------1------------------------0-----------1---------1----------0---1---- 
G------0------------------------0-----------0---------0----------0---0---- 
D------3------------------------0-----------2---------3----------0---2---- 
A------3------------------------2-----------0---------3----------2---0---- 
E------x------------------------x-----------x---------x----------x---x---- 


e------0--------------------------0--------------0----------0-----------0---0-- 
B------1--------------------------0--------------1----------1-----------0---1-- 
G------0--------------------------0--------------0----------0-----------0---0-- 
D------3--------------------------0--------------2----------3-----------0---2-- 
A------3--------------------------2--------------0----------3-----------2---0-- 
E------x--------------------------x--------------x----------x-----------x---x-- 

Chorus 2: 

......time has been spread sooo thin 
e---x----------------x-------------0-------------- 
B---3----------------3-------------0-------------- 
G---0----------------2-------------1--------------- 
D---0----------------0-------------2--------------- 
A---2----------------0-------------2--------------- 
E---3----------------2-------------0--------------- 


e-------------x-------------x------1--------0------ 
B-------------3-------------3------1--------0------ 
G-------------0-------------2------2--------1------- 
D-------------0-------------0------3--------2------- 
A-------------2-------------0------3--------2------- 
E-------------3-------------2------1--------0------- 


e--------x------------------------------x--------------------------0----- 
B--------3------------------------------3--------------------------0----- 
G--------0------------------------------2--------------------------1----- 
D--------0------------------------------0--------------------------2----- 
A--------2------------------------------0--------------------------2----- 
E--------3------------------------------2--------------------------0----- 


e--------x------------------------------x---------------------1---------0---- 
B--------3------------------------------3---------------------1---------0---- 
G--------0------------------------------2---------------------2---------1---- 
D--------0------------------------------0---------------------3---------2---- 
A--------2------------------------------0---------------------3---------2---- 
E--------3------------------------------2---------------------1---------0---- 

Bridge 2: 

and you'll be sorry...
e--------------0-0-0-0-0-0--1-------------------------0-0-0-0-0-0--1---- 
B--------------1-1-1-1-1-1--1-------------------------1-1-1-1-1-1--1---- 
G--------------0-0-0-0-0-0--2-------------------------0-0-0-0-0-0--2---- 
D--------------2-2-2-2-2-2--3-------------------------2-2-2-2-2-2--3----- 
A--------------3-3-3-3-3-3--3-------------------------3-3-3-3-3-3--3----- 
E--------------0-0-0-3-0-3--1-------------------------0-0-0-3-0-3--1----- 


e-----0---0---0----0---0----0---1---------------------------0-0-0-0-0-0-1-- 
B-----1---1---1----1---1----1---1---------------------------1-1-1-1-1-1-1-- 
G-----0---0---0----0---0----0---2---------------------------0-0-0-0-0-0-2-- 
D-----2---2---2----2---2----2---3---------------------------2-2-2-2-2-2-3-- 
A-----3---3---3----3---3----3---3---------------------------3-3-3-3-3-3-3-- 
E-----0---0---0----3---0----3---1---------------------------0-0-0-3-0-3-1-- 


e---0-0-0-0-0-0-1-----------------0-0-0-0-0-0-1----- 
B---1-1-1-1-1-1-1-----------------1-1-1-1-1-1-1----- 
G---0-0-0-0-0-0-2-----------------0-0-0-0-0-0-2----- 
D---2-2-2-2-2-2-3-----------------2-2-2-2-2-2-3----- 
A---3-3-3-3-3-3-3-----------------3-3-3-3-3-3-3----- 
E---0-0-0-3-0-3-1-----------------0-0-0-3-0-3-1----- 


e-----0--0--0--0--0--0---1------------------0-0-0-0-0-0-1---------0---0--- 
B-----1--1--1--1--1--1---1------------------1-1-1-1-1-1-1---------0---1--- 
G-----0--0--0--0--0--0---2------------------0-0-0-0-0-0-2---------0---0--- 
D-----2--2--2--2--2--2---3------------------2-2-2-2-2-2-3---------0---2--- 
A-----3--3--3--3--3--3---3------------------3-3-3-3-3-3-3---------2---0--- 
E-----0--0--0--3--0--3---1------------------0-0-0-3-0-3-1---------x---x--- 

Outo: 

e---------0-----------------------------0----------------------- 
B------------1----------------------------1---------0-------1-- 
G------0-------0------0------0------0------0------------------ 
D----3--------------0------2------3-------------0-------2----- 
A--3--------------2------0------3-------------2-------0------- 
E---------------------------------------------------------------- 

e------------0--------------------------------------0--------------------------- 
B------------1--1-----------0--------1-------------1--1------------0--------1- 
G--------0---------0--------0--------0---------0---------0---------0--------0- 
D-----3------------------0--------2----------3------------------0---------2---- 
A--3------------------2--------0---------3-------------------2---------0------- 
E---------------------------------------------------------------------------------
Comments