Dashboard Confessional - Carve Your Heart Out Yourself Chords & Tabs

 

Carve Your Heart Out Yourself Chords & Tabs

Dashboard Confessional Chords & Tabs

Version: 2 Type: Tab 0 ratings
1 star 2 stars 3 stars 4 stars 5 stars
comments

Carve Your Heart Out Yourself Tab

   
-------------------------------------------------------------------------------
	      Carve Your Heart Out Yourself - Dashboard Confessional
-------------------------------------------------------------------------------
Tabbed by: Jeremy Keltner 
Email: PunkRockBoy6790@aol.com

Tuning:EADF#BD#

  Intro
D#|----0-----0-----|---0-----0-----|---0-----0-----|---0-------0-----|
B |------0-----0---|-----0-----0---|-----0-----0---|-----0-------0---|
F#|--------------0-|-------------0-|-------------0-|-------0-------0-|
D |--------1-------|-------4-------|-------1-------|-----------------|
A |----2-----------|---2-----------|---2-----------|---2-------2-----|
E |--2-------------|-0-------------|-2-------------|-0-------0-------|
[ Tab from: http://www.guitartabs.cc/tabs/d/dashboard_confessional/carve_your_heart_out_yourself_tab_ver_2.html ]
D#|----0-----0-----|---0-----0-----|---------0-----|--------0--------|
B |------0-----0---|-----0-----0---|---0-0---------|--0-0------------|
F#|--------------0-|-------------0-|-------0-------|-----------------|
D |--------1-------|-------4-------|---------------|-----------------|
A |----2-----------|---2-----------|---2-----------|--2---2----------|
E |--2-------------|-0-------------|-0-------------|0----------------|

 Then during the verse 
D#|--------0-----|-------0---------|
B |----0-----0---|---0-----0-------|
F#|--0---0-----0-|-----------------|x4
D |--------------|-2---2-----2-----|
A |--------------|-----------------|
E |--------------|-----------------|

I've been looking all over for a good version of this tab and I couldn't find one
anywhere so I just decided to tab out as much as I could. I didn't want to post any
more of the song unless I was sure it was absolutely correct. I'm almost positive
that this much is 100% right. Tune the high E and G down one half step. I'll try to
add more later if I can. Any questions or comments email me at PunkRockBoy6790@aol.com

| /  slide up
| \  slide down
| h  hammer-on
| p  pull-off
| ~  vibrato
| +  harmonic
| x  Mute note
===============================================================================
Comments