Dashboard Confessional - Best Deceptions Chords & Tabs

 

Best Deceptions Chords & Tabs

Dashboard Confessional Chords & Tabs

Version: 8 Type: Tab 0 ratings
1 star 2 stars 3 stars 4 stars 5 stars
comments

Best Deceptions Tab

This is "The Best Deceptions" by Dashboard Confessional off of "The Places You Have Come
To Fear the Most".

Normal Tuning
Capo on fret 1 

Intro: X2
|--------------------------------------|
|--------------------------------------|
|------0-------0-------0---------------|
|----2---2---2---2---2---2-3-2-0-2-----|
|--3-------2-------0-------------------|
|--------------------------------------|

Verse: X6
|--0--00-00--0--00-00--0-00-11--0-0-0--|
|--1--11-11--1--11-11--1-11-11--1-1-1--|
|--0--00-00--0--00-00--2-22-22--2-2-0--|
|--2--22-22--2--22-22--2-22-22--3-2-0--|
|--3--33-33--2--22-22--0-00-00--x-x-x--|
|--x--xx-xx--x--xx-xx--x-xx-xx--x-x-x--|

Chorus: X4
|--0-0-00-00-00--333-33-111-11---------|
|--1-1-11-11-11--333-33-111-11---------|
|--0-0-00-00-00--000-00-222-22---------|
|--2-2-22-22-22--000-00-333-33---------|
|--3-3-33-33-33--222-22-333-33---------|
|--x-x-xx-xx-xx--333-33-111-11---------|

Part In Chorus (So kiss me hard...):
|--0~--333-33-111-11-------------------|
|--1~--333-33-111-11-------------------|
|--0~--000-00-222-22-------------------|
|--2~--000-00-333-33-------------------|
|--3~--222-22-333-33-------------------|
|--x~--333-33-111-11-------------------| Continue w/ Chorus: X6

Intro: X2
|--------------------------------------|
|--------------------------------------|
|------0-------0-------0---------------|
|----2---2---2---2---2---2-3-2-0-2-----|
|--3-------2-------0-------------------|
|--------------------------------------|
-
Verse 2: X5
|--0--00--0--00--0-00--0-0-0-----------|
|--1--11--1--11--1-11--1-1-1-----------|
|--0--00--0--00--2-22--2-2-0-----------|
|--2--22--2--22--2-22--3-2-0-----------|
|--3--33--2--22--0-00--x-x-x-----------|
|--x--xx--x--xx--x-xx--x-x-x-----------|

Chorus 2: X4
|--0-0-00-00-00--333-33-111-11---------|
|--1-1-11-11-11--333-33-111-11---------|
|--0-0-00-00-00--000-00-222-22---------|
|--2-2-22-22-22--000-00-333-33---------|
|--3-3-33-33-33--222-22-333-33---------|
|--x-x-xx-xx-xx--333-33-111-11---------|
[ Tab from: http://www.guitartabs.cc/tabs/d/dashboard_confessional/best_deceptions_tab_ver_8.html ]
Part In Chorus 2: (So kiss me hard...):
|--0~-0~-333-33-111-11-------------------|
|--1~-1~-333-33-111-11-------------------|
|--0~-0~-000-00-222-22-------------------|
|--2~-2~-000-00-333-33-------------------|
|--3~-3~-222-22-333-33-------------------|
|--x~-x~-333-33-111-11-------------------| Continue w/ Chorus 2: X6

Outro: X4
|--0-0-0-0-0-0-0-0--3-3-3-3-3-3-3-3------|
|--1-1-1-1-1-1-1-1--3-3-3-3-3-3-3-3------|
|--0-0-0-0-0-0-0-0--0-0-0-0-0-0-0-0------|
|--2-2-2-2-2-2-2-2--0-0-0-0-0-0-0-0------|
|--3-3-3-3-3-3-3-3--2-2-2-2-2-2-2-2------|
|--x-x-x-x-x-x-x-x--3-3-3-3-3-3-3-3------|

|--1-1-1-1-1-1-1-1--00-0000--33-3333-----|
|--1-1-1-1-1-1-1-1--11-1111--33-3333-----|
|--2-2-2-2-2-2-2-2--00-0000--00-0000-----|
|--3-3-3-3-3-3-3-3--22-2222--00-0000-----|
|--3-3-3-3-3-3-3-3--33-3333--22-2222-----|
|--1-1-1-1-1-1-1-1--xx-xxxx--33-3333-----|

End On:
|--8~--|
|--8~--|
|--0~--|
|--0~--|
|--7~--|
|--8~--|


Lyrics:
Verse:
I heard about your trip.
I heard about your souvenirs.
I heard about the cool breeze, in the cool nights,
and the cool guys that you spent them with.
Well I guess I should have heard of them from you.
I guess I should have heard of them from you.

Chrorus:
Don't you see, don't you see,
that the charade is over?
And all the "Best Deceptions" and "Clever Cover Story" awards go to you.
So kiss me hard
'cause this will be the last time that I let you.
You will be back someday
and this awkward kiss that screams of other people's lips will be of service
to keeping you away.

Verse2:
I heard about your regrets.
I heard that you were feeling sorry.
I heard from someone that you wish you could set things right between us.
Well I guess I should have heard of them from you.
I guess I should have heard of them from you.

I'm waiting for blood to flow to my fingers,
I'll be all right when my hands get warm.Ignoring the phone,
I'd rather say nothing. I'd rather you'd never heard my voice.
You're calling too late
too late to be gracious you do not warrant long goodbyes.




I'm not too sure about the last note that you end on. But other than that I'm pretty
positive this tab is almost right. If you have any comments, feel free to e-mail me at
Sharpiesniffer1@yahoo.com
Comments