Dashboard Confessional - Best Deceptions Chords & Tabs

 

Best Deceptions Chords & Tabs

Dashboard Confessional Chords & Tabs

Version: 7 Type: Tab 0 ratings
1 star 2 stars 3 stars 4 stars 5 stars
comments

Best Deceptions Tab

   
THE BEST DECEPTIONS - Dashboard Confessional

by: stephanie mccabe - blonde_much@hotmail.com
a guy wrote something like this up, but the tuning was off and the intro was wrong.
me and my teacher fixed this up, so its pretty much perfect.
have fun.

Intro (2X)
db |----------------------------------------------------|
Ab |----------------------------------------------------|
F  |-------3--0------3--0------3--0--------------------|
Db |---------------0--------0--------5-4-2-(slide)-4----|
Ab |-----0-------4---------2----------------------------|
Db |---0------------------------------------------------|

Verse (6X)
db |---0---00---00----0--0---00---0---00---0----0--0--0--0----|
Ab |---0---00---00----0--0---00---0---00---0----0--0--0--0----|
F  |---0---00---00----0--0---00---0---00---0----0--0--0--0----|
Db |---0---00---00----4--4---44---4---44---4----5--4--2--4----|
Ab |---0---00---00----4--4---44---2---22---2----0--0--0--0----|
Db |---0---00---00----0--0---00---0---00---0----0--0--0--0----|

(verse 1)
I heard about your trip.
I heard about your souvenirs.
I heard about the cool breeze, in the cool nights,
and the cool guys that you spent them with.
I guess I should have heard of them from you.
I guess I should have heard of them from you...

(verse 2)
I heard about your regrets.
I heard that you were feeling sorry.
I heard from someone that you wished you could,
Set things right between us.
Well I guess I should have heard of that from you,
I guess I should have heard of that from you...

Chorus (9X)                                                       (fourth time only) 
db |---0---00--0-0---0--0-----0-0-0--0---0-0--0-0-0--0-0---0-0------------0--------|
Ab |---0---00--0-0---0--0-----0-0-0--0---0-0--0-0-0--0-0---0-0-------/----0--------|
F  |---0---00--0-0---0--0-----8-8-8--8---8-8--3-3-3--3-3---8-8---o--/-----0 HOLD --|
Db |---0---00--0-0---0--0-----7-7-7--7---7-7--5-5-5--5-5---7-7-----/--o---0--------|
Ab |---0---00--0-0---0--0-----0-0-0--0---0-0--0-0-0--0-0---0-0----/-------0--------|
Db |---0---00--0-0---0--0-----0-0-0--0---0-0--0-0-0--0-0---0-0------------0--------|

Don't you see, don't you see that the charade is over? 
And all the "Best Deceptions" and 
the Clever Cover Story" awards go to you. 
So kiss me hard 'cause
this will be the last time that I'll let you.
You will be back some day and this awkward kiss
that tells of other people's lips will be of service 
to keeping you away.


Bridge (4x) Last Time
(Let Ring)
db |---0-0-0-0-0-0-0-0---0-0-0-0-0-0-0-0---0-0-0-0-0-0-0-0---0-0-0-0-0-0-0-0--|--0--|
Ab |---0-0-0-0-0-0-0-0---0-0-0-0-0-0-0-0---0-0-0-0-0-0-0-0---0-0-0-0-0-0-0-0--|--0--|
F  |---8-8-8-8-8-8-8-8---7-7-7-7-7-7-7-7---5-5-5-5-5-5-5-5---3-3-3-3-7-7-7-7--|--8--|
Db |---7-7-7-7-7-7-7-7---7-7-7-7-7-7-7-7---4-4-4-4-4-4-4-4---2-2-2-2-7-7-7-7--|--7--|
Ab |---0-0-0-0-0-0-0-0---0-0-0-0-0-0-0-0---0-0-0-0-0-0-0-0---0-0-0-0-0-0-0-0--|--0--|
Db |---0-0-0-0-0-0-0-0---0-0-0-0-0-0-0-0---0-0-0-0-0-0-0-0---0-0-0-0-0-0-0-0--|--0--|

I'm waiting for blood to flow to my fingers.
I'll be alright when my hands get warm.
Ignoring the phone, Id rather say nothing.
Id rather you never heard my voice.
Your calling too late, Too late to be gracious.
And you do not warrant long goodbyes.
Your calling too late. Your calling too late.
Your calling too late...

Intro, Verse 1, Chorus, Intro, Verse 2, Chorus, Bridge (end)
===========THE BEST DECEPTIONS - Dashboard Confessional

By:  *marc.ispass* RockStarSuprhero@aol.com

Alright, so, this is about flawless, I'm pretty sure.  My first time posting 
a tab, but I'm almost positive.  A lot of Chris's songs are in open D tuning:
Starting from the low E : D A D F# A D 
( Dmaj chord when strummed open.. it's the only way to play along with almost
every Dashboard song -- impress your friends! ) Alright, here goes..

Intro (2X)
d  |----------------------------------------------------|
A  |----------------------------------------------------|
F# |-------3---------3---------3------------------------|
D  |---------2-----2---2-----2---2---5-4-2-(slide)-4----|
A  |-----0-------4---------2----------------------------|
D  |---0------------------------------------------------|

Verse (6X)
d  |---0---00---00----0--0---00---0---00---0----0--0--0--0----|
A  |---0---00---00----0--0---00---0---00---0----0--0--0--0----|
F# |---0---00---00----0--0---00---0---00---0----0--0--0--0----|
D  |---0---00---00----4--4---44---4---44---4----5--4--2--4----|
A  |---0---00---00----4--4---44---2---22---2----0--0--0--0----|
D  |---0---00---00----0--0---00---0---00---0----0--0--0--0----|

        I heard      about  your trip.
        I heard      about  your souvenirs.
        I heard      about the cool breeze, in the cool nights,
    and the cool guys that you spent them with.
       I guess I should have heard of them from you.
       I guess I should have heard of them from you...
[ Tab from: http://www.guitartabs.cc/tabs/d/dashboard_confessional/best_deceptions_tab_ver_7.html ]
Chorus (9X)                                                      (fourth time only)   
d |---0---00--0-0---0--0-----0-0-0--0---0-0--0-0-0--0-0---0-0------------0--------|
A |---0---00--0-0---0--0-----0-0-0--0---0-0--0-0-0--0-0---0-0-------/----0--------|
F#|---0---00--0-0---0--0-----8-8-8--8---8-8--3-3-3--3-3---8-8---o--/-----0 HOLD --|
D |---0---00--0-0---0--0-----7-7-7--7---7-7--5-5-5--5-5---7-7-----/--o---0--------|
A |---0---00--0-0---0--0-----0-0-0--0---0-0--0-0-0--0-0---0-0----/-------0--------|
D |---0---00--0-0---0--0-----0-0-0--0---0-0--0-0-0--0-0---0-0------------0--------|

        Don't you see,   don't you see           that the chara-...
      -ade                    is over ?                   And...
    all the "Best Deceptions" and the Clever Cover Story" awards
     ...            go to you.                                       So kiss me hard 'cause
       this will be the last time that I'll let you.
       You will be back some day   and this     awkward kiss
       that tells of other people's lips     will be of service     
       to keeping you a-------------------------------
        way-------------------------------------------.

Intro 

Verse 

Chorus    

Bridge (4x)                                                                 Last Time
                                                                            (Let Ring)
d |---0-0-0-0-0-0-0-0---0-0-0-0-0-0-0-0---0-0-0-0-0-0-0-0---0-0-0-0-0-0-0-0--|--0--|
A |---0-0-0-0-0-0-0-0---0-0-0-0-0-0-0-0---0-0-0-0-0-0-0-0---0-0-0-0-0-0-0-0--|--0--|
F#|---8-8-8-8-8-8-8-8---7-7-7-7-7-7-7-7---5-5-5-5-5-5-5-5---3-3-3-3-7-7-7-7--|--8--|
D |---7-7-7-7-7-7-7-7---7-7-7-7-7-7-7-7---5-5-5-5-5-5-5-5---2-2-2-2-7-7-7-7--|--7--|
A |---0-0-0-0-0-0-0-0---0-0-0-0-0-0-0-0---0-0-0-0-0-0-0-0---0-0-0-0-0-0-0-0--|--0--|
D |---0-0-0-0-0-0-0-0---0-0-0-0-0-0-0-0---0-0-0-0-0-0-0-0---0-0-0-0-0-0-0-0--|--0--|

     I'm waiting for blood...

                                                  ...calling too late

Well, I'm pretty sure that's mostly right.  I tried to imitate the rhythms as best I could,
as well as where the vocals should about fall.  Email me with comments.. peace!


=========


THE BEST DECEPTIONS - Dashboard Confessional

you have to tune to DADF#Ad
This is Patrick Wilson and i hope you like the tab.
Ive seen a tab of this before and i fixed it so this is right.

INTRO
d |---------------------------------------------------------------------------|
A |---------------------------------------------------------------------------|
F#|----------3-0-------3-0-------3-0------------------------------------------|
D |------------------0---------0-------5-4-2-/4--(X2)-------------------------|
A |-------0--------4---------2------------------------------------------------|
D |-----0---------------------------------------------------------------------|

VERSE CHORDS
d |-----0----0----0----0-0-0-0------------------------------------------------|
A |-----0----0----0----0-0-0-0------------------------------------------------|
F#|-----0----0----0----0-0-0-0------------------------------------------------|
D |-----0----4----4----5-4-2-4---(X6)-----Figure out the rhythm---------------|
A |-----0----4----2----0-0-0-0------------------------------------------------|
D |-----0----0----0----0-0-0-0------------------------------------------------|

CHORUS
d |-----0----7----5-----------------0-----------------------------------------|
A |-----0----7----5-----------------0--figure out the rhythm------------------|
F#|-----0----7----5-----------------0-----------------------------------------|
D |-----0----7----5-------(X9)------0--hold on the 4th time only--------------|
A |-----0----7----5-----------------0-----------------------------------------|
D |-----0----7----5-----------------0-----------------------------------------|

THERE IS A LITTLE PART AT THE END THAT IM 
NOT SURE OF BUT THIS IS ALL RIGHT.

INTRO X2
VERSE CHORDS X6
CHORUS X9
INTRO X2
VERSE CHORDS X6
CHORUS X9
OTHER PART


==============

dashboard confessional-the Best Deceptions

tuning: Db Ab Db Gb Ab Db
Leave the Ab Db strings open the entire time you're strumming and strum them as well.

Intro
----------------------------------------------------
----------------------------------------------------
----------------------------------------------------
-----7--4-------7--4-------7--4--5--4--2--4---------
---5-------4--5-------2--5--------------------------
-0--------------------------------------------------

Verse (guitar 2 continues playin intro)
----------------------------------------------------
----------------------------------------------------
-7--7------7--7-------4--4--------------------------
-x--x------x--x-------x--x-------5--4--2--4---------
-5--5------4--4-------2--2-------2--2--2--2---------
-0--0------0--0-------0--0-------0--0--0--0---------

Chorus

----------------------------------------------------
----------------------------------------------------
-7-7-7-7-7-7-7-7---14-14-14-14---12-12-12-12--------
-7-7-7-7-7-7-7-7---14-14-14-14---12-12-12-12--------
-5-5-5-5-5-5-5-5---12-12-12-14---10-10-10-10--------
-0-0-0-0-0-0-0-0----0--0--0--0----0--0--0--0--------

Chorus B

----------------------------------------------------
-7-----------------14-14-14-14---12-12-12-12--------
-7-----------------14-14-14-14---12-12-12-12--------
-5-----------------12-12-12-14---10-10-10-10--------
-0------------------0--0--0--0----0--0--0--0--------

Outro

----------------------------------------------------
-7-------14-------12-------9-------11-------14------
-7---8x--14--8x--12---8x--9---4x--11--3x--14---1x---
-5-------12-------10-------7--------9-------12------
-0--------0--------0-------0--------0--------0------

Intro 2x  
Verse 6x 
Chorus 4x repeat
Chorusb 1x /
Chorus 5x /

Outro 4x 
end on 
------
--15--
------ 
--12--
------
------

any questions or comments feel free to email me. muskak35@hotmail.com
Comments