Dashboard Confessional - Best Deceptions Chords & Tabs

 

Best Deceptions Chords & Tabs

Dashboard Confessional Chords & Tabs

Version: 5 Type: Tab 0 ratings
1 star 2 stars 3 stars 4 stars 5 stars
comments

Best Deceptions Tab

I wanted to learn this song but it seems that DC (Dashboard Confessional) uses
some wierd tuning, i think its DAFDF#D, anyway, i didnt want to tune my guitar
so i heard it a few times and started playing along and it seemed perfect.  So
use this tab if u dont want to use weird tuning.

Standard Tuning

Intro

e------------------------------------------------
B------------------------------------------------
G------------------------------------------------
D--------6--3------6-3--------6-3-4-3-1-3--------   x2
A---4-4-------3-3--------1-1---------------------
E------------------------------------------------

Verse- 
e---6-------6------4-----------------------------
B---6-------6------4-----------------------------
G---6-------6------4-----------------------------
D---6-------6------4-----------------------------
A---4-------6------4-----------------------------
E---4-------4------2-----------------------------
[ Tab from: http://www.guitartabs.cc/tabs/d/dashboard_confessional/best_deceptions_tab_ver_5.html ]
Chorus-(same chords different rhythm)
e---6-------6------4-----------------------------
B---6-------6------4-----------------------------
G---6-------6------4-----------------------------
D---6-------6------4-----------------------------
A---4-------6------4-----------------------------
E---4-------4------2-----------------------------


BACK TO INTRO, then Verse then Chorus........
.....
then do this


Post Chorus-(same chords)
e---6-------6------4-------6------4----------------
B---6-------6------4-------6------4----------------
G---6-------6------4-------6------4----------------
D---6-------6------4-------6------4----------------    (repeat till song ends)
A---4-------6------4-------6------4----------------
E---4-------4------2-------4------2----------------
   I waiting for blood, to flow to my fingers......

END ON THIS
e---6---
B---6---
G---6---
D---6---
A---4---
E---4---

thats they way this song goes, if it doesnt sound right, u are playing it wrong
Feel Free to email me for praise or comments.
Thank you
Comments