Dashboard Confessional - Best Deceptions Chords & Tabs

 

Best Deceptions Chords & Tabs

Dashboard Confessional Chords & Tabs

Version: 1 Type: Tab 0 ratings
1 star 2 stars 3 stars 4 stars 5 stars
comments

Best Deceptions Tab

------------------------------------------------------------------------------- 
Dashboard Confessional – The Best Deceptions 
------------------------------------------------------------------------------- 

By: chad (nerdcorpsreject@hotmail.com)
sent me any questions, comments, your mama jokes, etc. 

drop d tuning 

e|---------------------------------------------| 
B|---------------------------------------------| 
G|------2---------2--------2---0---------------| 
D|---0----4-----0---4----0---4---4--2/--4------| 
A|-----------4---------2-----------------------| 
D|-0-------------------------------------------| 

e|---------------------| 
B|---------------------| 
G|--7--7--4------------| 
D|--4--4--4--5-4-2-4---| 
A|--5--4--2--2-5-5-5---| 
E|--0--0---------------| 
[ Tab from: http://www.guitartabs.cc/tabs/d/dashboard_confessional/best_deceptions_tab.html ]
(chorus) 
e|-----0-------| 
B|-----2--0----| 
G|--7--2--4----| 
D|--4--2--5----| 
A|--5-----5----| 
E|--0-----0----| 

e|---------------------------------------------| 
B|---------------------------------------------| 
G|------2---------2--------2---0---------------| 
D|---0----4-----0---4----0---4---4--2/--4------| 
A|-----------4---------2-----------------------| 
D|-0-------------------------------------------| 

e|---------------------| 
B|---------------------| 
G|--7--7--4------------| 
D|--4--4--4--5-4-2-4---| 
A|--5--4--2--2-5-5-5---| 
E|--0--0---------------| 

(chorus) 
e|-----0-------| 
B|-----2--0----| 
G|--7--2--4----| 
D|--4--2--5----| 
A|--5-----5----| 
E|--0-----0----| 

e|---------------------| 
B|---------------------| 
G|--7--14--12--9--11---| 
D|--4--11---9--9--11---| 
A|--5--12--10--7--9----| 
E|--0---0---0--0--0----| 

-------------------------------------------------------------------------------
Comments