Dashboard Confessional - Bend And Not Break Chords & Tabs

 

Bend And Not Break Chords & Tabs

Dashboard Confessional Chords & Tabs

Version: 2 Type: Tab 0 ratings
1 star 2 stars 3 stars 4 stars 5 stars
comments

Bend And Not Break Tab

First guitar 

e---------4-5-----2--2---4-5--
b-0--0------------------------
g-----------------------------
d-----------------------------
a-----------------------------
E-----------------------------

second guitar
e--------7--9--------7--9

third guitar
e------0----0---
b----7---7------

and with the strumming i go

in the beginning...which leads to....
e--0---------------|---0--------0--------0--------
b--0---------------|---0--------0--------0--------
g--0---------------|---0--------0--------2--------
d--2---------------|---2--------4--------2--------
a--2---------------|---2--------4--------0--------
E--0---------------|---0--------0--------0--------
[ Tab from: http://www.guitartabs.cc/tabs/d/dashboard_confessional/bend_and_not_break_tab_ver_2.html ]
For the intro, if its just you playing, and no one else wants to join along,
which is usually the case for me, i made it for one guitar too....

e----------4---5-----------4--5-----2-----2-----4---5----2---2---4-5-
b--0--0-------------0--0---------------0-----0----0---0----0---0-----
g--------------------------------------------------------------------
d--------------------------------------------------------------------
a--------------------------------------------------------------------
E--------------------------------------------------------------------


this song is great, and its so much fun to strum. If you cant get it identical
to his, make up your own. I love this song, and playing it.....sigh. Hope you
like it.
Comments