Dashboard Confessional - Age Six Racer Chords & Tabs

 

Age Six Racer Chords & Tabs

Dashboard Confessional Chords & Tabs

Version: 1 Type: Tab 0 ratings
1 star 2 stars 3 stars 4 stars 5 stars
comments

Age Six Racer Tab

Tabbed by: Jackson


X  =  Don't play that string
~  =  Let the not ring



Intro:(picking)

E |5-------------|----------|--------|--------|
B |--0-----------|----------|--------|--------|
G |----6-/-7-6-\-|----2-----|--------|--------|
D |--------------|0-----0---|------0-|--------|
A |--------------|--2-----2-|----0---|--------|
E |--------------|----------|2-5-----|2-5-7-3-|(x2)

Chorus: (figure out the strumming patterns... it is easy and repedative)

"So long sweet summer..."

 E |--2--|--0--|--2--|--3--|
 B |--3--|--2--|--3--|--3--|
 G |--2--|--2--|--4--|--0--|
 D |--0--|--2--|--4--|--0--|
 A |--0--|--0--|--0--|--2--|
 E |--x--|--x--|--x--|--3--|(x4)

Bridge: (picking)

"Hey, hey thanks.. thanks for that summer..."
[ Tab from: http://www.guitartabs.cc/tabs/d/dashboard_confessional/age_six_racer_tab.html ]
 E |2-----2-----|------0-----|------2-----|5-----3-----|
 B |--3-----3---|--------2---|----3---3---|--3-----3---|
 G |----2-----2-|----2-----2-|--4-------4-|----4-----4-|
 D |------------|--2---------|4-----------|------------|
 A |------------|0-----------|------------|------------|
 E |------------|------------|------------|------------| (x4)


Interlude thing:


 E |---------|
 B |---------|
 G |2----4---|
 D |2-4--4-5-|
 A |0-4--2-5-|
 E |--2----3-| (beginning part... only played once...then play this:--|
                                                                      |
 E |----------------|----------|                                      |
 B |----------------|----------|                                      |
 G |----------------|-----2/4--|                                      |
 D |5555555555555555|4----2/4--|  <-----------------------------------|
 A |5555555555555555|4----0/2--|
 E |3333333333333333|2---------|

Outro: (same as the intro)


E |5-------------|----------|--------|--------|
B |--0-----------|----------|--------|--------|
G |----6-/-7-6-\-|----2-----|--------|--------|
D |--------------|0-----0---|------0-|--------|
A |--------------|--2-----2-|----0---|--------|
E |--------------|----------|2-5-----|2-5-7-3~|(x1)
Comments