Dashboard Confessional - Again I Go Unnoticed Chords & Tabs

 

Again I Go Unnoticed Chords & Tabs

Dashboard Confessional Chords & Tabs

Version: 7 Type: Tab 0 ratings
1 star 2 stars 3 stars 4 stars 5 stars
comments

Again I Go Unnoticed Tab

-------------------------------------------------------------------------------
		  AGAIN I GO UNNOTICED - Dashboard Confessional
-------------------------------------------------------------------------------

Tabbed by: The Stud
Email: weezer_rd@yahoo.com

Tuning: ddDDAD (all flat)
	e string: 1.5 steps down to d flat
	B string: 1.5 steps up to d flat
	G string: 3 steps down to D flat
	D string: .5 steps down to D flat
	A string: .5 steps down to A flat
	E string: 1.5 steps down to D flat
the top 2 stings will have equal tones, as will the G and D strings

CAPO ON 2ND FRET
ALL NOTES RELATIVE TO CAPO	
NOTE: The dashed lines represent no kind of timing
      Listen to the song for rythymn and timing
      The chords generally land on the words noted, but some may be off

      So... night... steals...
db|----0------0--------0-------|
db|----0------0--------0-------|
Db|----0------4--------2-------|
Db|----0------4--------2-------|
Ab|----0------2--------0-------|
Db|----0------0--------0-------|

    Exhale... breath... unnoticed...
db|----0---------0---------0--------|
db|----0---------0---------0--------|
Db|----0---------4---------2--------|
Db|----0---------4---------2--------|
Ab|----0---------2---------0--------|
Db|----0---------0---------0--------|
    
  Please... you're... tired... more... 
db|--0---------0--------0--------0------------|
db|--0---------0--------0--------0------------|
Db|--7---------2--------4--------0------------|
Db|--7---------2--------4--------5------------|
Ab|--5---------0--------2--------5------------|
Db|--0---------0--------0--------5------------|
     
   break Out of touch, are we out of time?
db|--0------------0-------------------0-------0--|
db|--0------------0-------------------0-------0--|
Db|--7------------2-------------------4-------0--|
Db|--7------------2-------------------4-------5--|
Ab|--5------------0-------------------2-------5--|
Db|--0------------0-------------------0-------5--|
[ Tab from: http://www.guitartabs.cc/tabs/d/dashboard_confessional/again_i_go_unnoticed_tab_ver_7.html ]
  Please... anything... mixed,  cause I... 
db|--0---------0---------0------------0-----|
db|--0---------0---------0------------0-----|
Db|--7---------2---------4------------0-----|
Db|--7---------2---------4------------5-----|
Ab|--5---------0---------2------------5-----|
Db|--0---------0---------0------------5-----|
     
    eyes Out of touch, are we out of time?
db|--0------------0-------------------0-----0-|
db|--0------------0-------------------0-----0-|
Db|--7------------2-------------------4-----0-|
Db|--7------------2-------------------4-----5-|
Ab|--5------------0-------------------2-----5-|
Db|--0------------0-------------------0-----5-| 

    Closed... kiss... passion...
db|----0--------0-------0----|
db|----0--------0-------0----|
Db|----0--------4-------2----|
Db|----0--------4-------2----|
Ab|----0--------2-------0----|
Db|----0--------0-------0----|

    your... slack... empty...
db|---0-------0--------0---|
db|---0-------0--------0---|
Db|---0-------4--------2---|
Db|---0-------4--------2---|
Ab|---0-------2--------0---|
Db|---0-------0--------0---|

Repeat "Please tell me you're just feeling tired..."

   I'll... tommorrow... better... better...
db|--0---------0-----------0---------0-------|
db|--0---------0-----------0---------0-------|
Db|--0---------0-----------7---------0-------|
Db|--2---------5-----------7---------7-------|
Ab|--2---------5-----------5---------7-------|
Db|--2---------5-----------0---------7-------|

   So... day... nights... without...
db|-0-----0-------0---------0----|
db|-0-----0-------0---------0----|
Db|-0-----0-------7---------0----|
Db|-2-----5-------7---------7----|
Ab|-2-----5-------5---------7----|
Db|-2-----5-------0---------7----|

       this... temporary... worth... again...
db|-0--------------0----------0--------0--|
db|-0--------------0----------0--------0--|
Db|-0--------------0----------7--------0--|
Db|-2--------------5----------7--------7--|
Ab|-2--------------5----------5--------7--|
Db|-2--------------5----------0--------7--|

       out... corner... only... then...
db|-0------------0--------0------0--------|
db|-0------------0--------0------0--------|
Db|-0------------0--------7------0--------|
Db|-2------------5--------7------7--------|
Ab|-2------------5--------5------7--------|
Db|-2------------5--------0------7--------|

Repeat "So quiet... again I go unnoticed"

End on: ...unoticed.
db|-----------0------------0---|
db|-----------0------------0---|
Db|-----------2------------0---|
Db|-----------2------------0---|
Ab|-----------0------------0---|
Db|-----------0------------0---|

===============================================================================
Comments