Dashboard Confessional - Again I Go Unnoticed Chords & Tabs

 

Again I Go Unnoticed Chords & Tabs

Dashboard Confessional Chords & Tabs

Version: 2 Type: Tab 1 rating
1 star 2 stars 3 stars 4 stars 5 stars
comments

Again I Go Unnoticed Tab

   
Song: Again I Go Unnoticed
By: Dashboard Confessionals
Tabbed by: Richard McMurtrey (Frisbee10@hotmail.com)

Try these chords; they're a little different from what has already been tabbed, but I think it 
sounds way better and most like the actual song. They have an awesome sound to them! 

You can tune down a half or whole step (depending on which version of the song you're listening 
to) if you want to play along. (This is my first tab by the way, in case anyone cares.) Listen 
to the song to get the rhythm. The names of the chords are approximately right.


Verse:
   Esus2  C#sus2/E Bsus2/E
e---0--------0--------0------
b---0--------0--------0------
g---9--------6--------4------
d---9--------6--------4------
a---7--------4--------2------
e---0--------0--------0------

[ Tab from: http://www.guitartabs.cc/tabs/d/dashboard_confessional/again_i_go_unnoticed_tab_ver_2.html ]
Chorus:
   Esus2  Bsus2/E C#sus2/E   Asus2
e---0--------0--------0--------0------
b---0--------0--------0--------0------
g---9--------4--------6--------2------
d---9--------4--------6--------2------
a---7--------2--------4--------0------
e---0--------0--------0--------0------


Bridge:
   F#m      Asus2    Esus2  C#sus2       
e---2--------0--------7--------4--------
b---2--------0--------7--------4--------
g---2--------2--------9--------6--------
d---4--------2--------9--------6--------
a---4--------0--------7--------4--------
e---2--------0--------7--------4--------

The last C#sus2 chord in the Bridge could possibly be B6/F#, but I'm pretty sure
that it is correct as written above. 

 B6/F#
---4---
---4---
---4---
---4---
---2---
---2---

Enjoy!!
Comments