Dashboard Confessional - Again I Go Unnoticed Chords & Tabs

 

Again I Go Unnoticed Chords & Tabs

Dashboard Confessional Chords & Tabs

Version: 1 Type: Tab 1 rating
1 star 2 stars 3 stars 4 stars 5 stars
comments

Again I Go Unnoticed Tab

   
Dashboard Confessional 
Again I Go Unnoticed - The Swiss Army Romance 
Tabbed by Morgan West 

Tune down guitar half step Eb-Ab-Db-Gb-Bb-Eb 

Timing is not represented here 

Main Guitar Riff(Listen to the cd and you can hear when he switches chords) 
eb|-0----0----0----------------- 
Bb|-0----0----0----------------- 
Gb|-7----0----0----------------- 
Db|-7----9----7----------------- 
Ab|-5----9----7----------------- 
Eb|-0----7----5----------------- 
[ Tab from: http://www.guitartabs.cc/tabs/d/dashboard_confessional/again_i_go_unnoticed_tab.html ]
2nd guitar(accompanies main riff) 
eb|--0------------ 
Bb|--0------------ 
Gb|--7------------ 
Db|--0------------ 
Ab|--5------------ 
Eb|--0------------ 

"Please tell me your just feeling tired" part 
eb|-0----0----0----0----- 
Bb|-0----0----0----0----- 
Gb|-7----0----0----0----- 
Db|-7----7----9----5----- 
Ab|-5----7----9----5----- 
Eb|-0----5----7----3----- 

"I'll wait until tommorow maybe you'll feel better then"part Main Guitar 
eb|-0---0----0----0------ 
Bb|-0---0----0----0------ 
Gb|-0---0----7----0------ 
Db|-2---5----7----0------ 
Ab|-2---5----5----7------ 
Eb|-0---3----0----5------ 

2nd Guitar 
eb|--0----0------0----0------ 
Bb|--0----0------0----0------ 
Gb|--9----7-----14---11------ 
Db|--0----0------0----0------ 
Ab|--7----5-----12----9------ 
Eb|--0----0------0----0------
Comments