Dashboard Confessional - Again I Go Unnoticed Standard Tuning Chords & Tabs

 

Again I Go Unnoticed Standard Tuning Chords & Tabs

Dashboard Confessional Chords & Tabs

Version: 1 Type: Tab 1 rating
1 star 2 stars 3 stars 4 stars 5 stars
comments

Again I Go Unnoticed Standard Tuning Tab

   
Dashboard Confessional 
Again I Go Unnoticed - The Swiss Army Romance 
Tabbed by Morgan West 

Tune down guitar half step Eb-Ab-Db-Gb-Bb-Eb 

Timing is not represented here 
[ Tab from: http://www.guitartabs.cc/tabs/d/dashboard_confessional/again_i_go_unnoticed_standard_tuning_tab.html ]
Main Guitar Riff(Listen to the cd and you can hear when he switches chords) 
eb|-0----0----0----------------- 
Bb|-0----0----0----------------- 
Gb|-9----6----4----------------- 
Db|-9----6----4----------------- 
Ab|-7----4----2----------------- 
Eb|-0----x----x----------------- 


"Please tell me your just feeling tired" part 
eb|-0----0    0---0----0----- 
Bb|-0----0    0---0----0----- 
Gb|-9----8    4---6----2----- 
Db|-9----9 or 4---6----2----- 
Ab|-7----9    2---4----0----- 
Eb|-0----7    x---x----x----- 

"I'll wait until tommorow maybe you'll feel better then"part Main Guitar 
eb|-2---5----0----2------ 
Bb|-2---5----0----4------ 
Gb|-2---6----1----4------ 
Db|-4---7----2----4------ 
Ab|-4---7----2----2------ 
Eb|-2---5----0----x------ 

Comments