Dashboard Confessional - Again I Go Unnoticed Chords & Tabs

 

Again I Go Unnoticed Chords & Tabs

Dashboard Confessional Chords & Tabs

Version: 1 Type: Bass Tab 0 ratings
1 star 2 stars 3 stars 4 stars 5 stars
comments

Again I Go Unnoticed Bass Tab

 G-|------------------------------------------------------------------|
 D-|---------------------------------------bass starts at about  0:04-|
 A-|---1-1-1-1--------------------------------------------------------|
Eb-|-------------5-5-5-5----------------------------------------------|

 G-|----------------------------------------------|
 D-|----------------------------------------------|    "Exhale...
 A-|---4-4-4-4--4-4-4-4--1-1-1-1------------------|
Eb-|------------------------------5-5-5-5---------|

 G-|----------------------------------------------|
 D-|----------------------------------------------|      "Please tell me...
 A-|---4-4-4-4------------1-1-1-1-----------------|
 Eb-|------------5-5-5-5-------------3-3-3-3------|
[ Tab from: http://www.guitartabs.cc/tabs/d/dashboard_confessional/again_i_go_unnoticed_btab.html ]
 G-|----------------------------------------------|
 D-|----------------------------------------------|   "Close lipped...
 A-|---4-4-4-4--4-4-4-4--1-1-1-1------------------|
Eb-|------------------------------5-5-5-5---------|
        "I waited till tomorrow...
 G-|--------------------------------------------------------------------------|
 D-|--------------------------------------------------------------------------|
 A-|----------4--3--3-3------------4-4--3--------------------4-4-4-4--3-3-3-3-|
Eb-|---0--3--------------0-0-3-3-----------0-0-0-0--3-3-3-3-------------------|

 G-|--------------------------------------|
 D-|--------------------------------------|   End.
 A-|---4--4--4--4-4--1--1-----------4-----|
Eb-|--------------------------5--5-5------|
Comments