Darude - Sandstorm Chords & Tabs

 

Sandstorm Chords & Tabs

Darude Chords & Tabs

Version: 3 Type: Tab 0 ratings
1 star 2 stars 3 stars 4 stars 5 stars
comments

Sandstorm Tab

Sandstorm
By: Darude
Tabs By: JoeNobody1234

INTRO

Guitar 1
E|-8-8-8-8-8-|-13-13-13--11-11-11-|-6-8-8-8-8-8-|-11-8-8-8-8-8-|
B|-----------|--------------------|-------------|--------------|
G|-----------|--------------------|-------------|--------------|
D|-----------|--------------------|-------------|--------------|
A|-----------|--------------------|-------------|--------------|
E|-----------|--------------------|-------------|--------------|

E|-11-8-8-8-8-8-|-13-13-13--11-11-11-|-6-8-8-8-8-8-|-11-8-8-8-8-8-|
B|--------------|--------------------|-------------|--------------|
G|--------------|--------------------|-------------|--------------|
D|--------------|--------------------|-------------|--------------|
A|--------------|--------------------|-------------|--------------|
E|--------------|--------------------|-------------|--------------|


E|-11-8-8-8-8-8-|-13-13-13--11-11-11-|-6-8-8-8-8-8-|-11-8-8-8-8-8-|
B|--------------|--------------------|-------------|--------------|
G|--------------|--------------------|-------------|--------------|
D|--------------|--------------------|-------------|--------------|
A|--------------|--------------------|-------------|--------------|
E|--------------|--------------------|-------------|--------------|
[ Tab from: http://www.guitartabs.cc/tabs/d/darude/sandstorm_tab_ver_3.html ]
E|-8-8-8--8-8-8-|-8-8-8--8-8-8-|-8-8-8--8-8-8-|-8-8-8--8-8-8-|
B|--------------|--------------|--------------|--------------|
G|--------------|--------------|--------------|--------------|
D|--------------|--------------|--------------|--------------|
A|--------------|--------------|--------------|--------------|
E|--------------|--------------|--------------|--------------|

Guitar 2

E|----------------|--------------------|----------------|----------------|
B|-13-13-13-13-13-|-16--13-13-13-13-13-|-13-13-13-13-13-|-13-13-13-13-13-|
G|----------------|--------------------|----------------|----------------|
D|----------------|--------------------|----------------|----------------|
A|----------------|--------------------|----------------|----------------|
E|----------------|--------------------|----------------|----------------|

E|----------------|----------------|--------------------------|
B|-13-13-13-13-13-|-13-13-13-13-13-|-13-13-13-13--13-13-13-13-|
G|----------------|----------------|--------------------------|
D|----------------|----------------|--------------------------|
A|----------------|----------------|--------------------------|
E|----------------|----------------|--------------------------|

E|--------------------------|--------------------------|
B|-13-13-13-13--13-13-13-13-|-13-13-13-13--13-13-13-13-|
G|--------------------------|--------------------------|
D|--------------------------|--------------------------|
A|--------------------------|--------------------------|
E|--------------------------|--------------------------|
Comments