Darude - Sandstorm Chords & Tabs

 

Sandstorm Chords & Tabs

Darude Chords & Tabs

Version: 2 Type: Tab 0 ratings
1 star 2 stars 3 stars 4 stars 5 stars
comments

Sandstorm Tab

-------------------------------------------------------------------------------
		          Sandstorm - Da Rude
-------------------------------------------------------------------------------
Tabbed by: LaxFreak0713
Email: LaxFreak0713@aol.com

Tuning:Standard
Intro:
First Part
e|-7-7-7-7-7-12-12-12-10-10-10-5-7-7-7-7-7-12-7-7-7-7-7-12-------------------|
B|---------------------------------------------------------------------------|
G|---------------------------------------------------------------------------|x2
D|---------------------------------------------------------------------------| 
A|---------------------------------------------------------------------------|
E|---------------------------------------------------------------------------|
[ Tab from: http://www.guitartabs.cc/tabs/d/darude/sandstorm_tab_ver_2.html ]
Second Part:
e|-7-7-7-7-7---12-7-7-7-7----7-7-7-7-7--7-7-7-7-7--7-7-7-7-7-----------------|
B|---------------------------------------------------------------------------|
G|---------------------------------------------------------------------------|
D|---------------------------------------------------------------------------|
A|---------------------------------------------------------------------------|
E|---------------------------------------------------------------------------|

e|-7-7-7-7-7-12-12-12-10-10-10-5-7-7-7-7-7-12-7-7-7-7-7-12-------------------|
B|---------------------------------------------------------------------------|
G|---------------------------------------------------------------------------|x4
D|---------------------------------------------------------------------------| 
A|---------------------------------------------------------------------------|
E|---------------------------------------------------------------------------|

Part 3:
e|-7-7-7-7-7-10-7-7-7-7-10-10-7-7-7-7-7-12-12-12-10-10-10-5------------------|
B|---------------------------------------------------------------------------|
G|---------------------------------------------------------------------------|x2
D|---------------------------------------------------------------------------|
A|---------------------------------------------------------------------------|
E|---------------------------------------------------------------------------|

===============================================================================
That's about it not much to it really.
Comments