Darling Violetta - Numb Chords & Tabs

 

Numb Chords & Tabs

Darling Violetta Chords & Tabs

Version: 1 Type: Bass Tab 0 ratings
1 star 2 stars 3 stars 4 stars 5 stars
comments

Numb Bass Tab

Darling Violetta - Numb
Tabbed By: Daniel Taylor
EMail: danielt88@hotmail.com


Intro

G----------------------------
D----2----2----0-----0---0---
A--0----3----5-----8---7-----
E----------------------------

Play this through a few times

Verses:
[ Tab from: http://www.guitartabs.cc/tabs/d/darling_violetta/numb_btab.html ]
G------------------------------
D------------------------------
A----2------2------3----8---7--
E--0----0-3----3-5----5---5----

Chorus:

G------------------------------------------------------------
D------------------------------------------------------------
A----------------5--5--5-5-5---3--3--3-3-3--7--7--7-7-7------
E--3--3--3-3-3-----------------------------------------------

That's pretty much it, there are a few fills I haven't tabbed 
but that is the main feel. I am not a bassist anyway!
Comments