Darling Violetta - Angel Theme Chords & Tabs

 

Angel Theme Chords & Tabs

Darling Violetta Chords & Tabs

Version: 3 Type: Tab 0 ratings
1 star 2 stars 3 stars 4 stars 5 stars
comments

Angel Theme Tab

Tabbed by:SpiralingDownwards

Tuning:Standard
I haven't figured out guitar part 2 yet but i will get back to you when i do!

(Violin Part)
e|---------------------------------------------------------------------------|
B|--------3------------------------------------------------------------------|
G|-----------5-4-4-2-0-0-----------------------------------------------------|
D|--2-4-5----------------4-2-4-5---------------------------------------------|
A|-------------------------------3-------------------------------------------|
E|---------------------------------------------------------------------------|

e|----------------2-3--------------------------------------------------------|
B|--------3-----------1-1----------------------------------------------------|
G|----------5-4-4------------------------------------------------------------|
D|--2-4-5-------------------2---4-2-4-5--2---4-2-4-5-7-9-10-9----------------|
A|--------------------------2-2----------2-2---------------------------------|
E|--------------------------0------------0-----------------------------------|
[ Tab from: http://www.guitartabs.cc/tabs/d/darling_violetta/angel_theme_tab_ver_3.html ]
e|----------------------------------2-3--------------------------------------|
B|---------3----------------3-----------1-1----------------------------------|
G|-4-5-4-2---5-4-2-0----------5-4-4------------------------------------------|
D|-------------------4-2-4-5-------------------------------------------------|
A|---------------------------------------------------------------------------|
E|---------------------------------------------------------------------------|
(guitar ending)
e|----3----------------------------------------------------------------------|
B|----0----------------------------------------------------------------------|
G|----0----------------------------------------------------------------------|
D|----2----------------------------------------------------------------------|
A|----2----------------------------------------------------------------------|
E|----0----------------------------------------------------------------------|
(Violin Ending) (Hold the note~)
e|--7~-----------------------------------------------------------------------|
B|---------------------------------------------------------------------------|
G|---------------------------------------------------------------------------|
D|---------------------------------------------------------------------------|
A|---------------------------------------------------------------------------|
E|---------------------------------------------------------------------------|
(Piano Ending)
e|---7-5-3-2-0---------------------------------------------------------------|
B|-------------3-1-0~--------------------------------------------------------|
G|---------------------------------------------------------------------------|
D|---------------------------------------------------------------------------|
A|---------------------------------------------------------------------------|
E|---------------------------------------------------------------------------|
Comments