Darling Violetta - Angel Theme Chords & Tabs

 

Angel Theme Chords & Tabs

Darling Violetta Chords & Tabs

Version: 1 Type: Tab 0 ratings
1 star 2 stars 3 stars 4 stars 5 stars
comments

Angel Theme Tab

This is not my tab, but it is a really cool song and its not already on this
site. Im not sure what the real name of it is. Its sposed to be with violins
or something but it sounds good on guitar.

It was tabbed by DAVE MAIDMENT


E----------------------------------------------------------------------------
B----------------------------------------------------------------------------
G-------0--7--5--4--2--0---------0--------0--7--5--4--11--12--5--5-----------
D-2--4-------------------4--2--4-----2--4----------------------------4--2--4-
A----------------------------------3--------------------------------2--------
E----------------------------------------------------------------------------
[ Tab from: http://www.guitartabs.cc/tabs/d/darling_violetta/angel_theme_tab.html ]
E----------------------------------------------------------------------------
B----------------------------------------------------------------------------
G-------0-----------0--2--5--4-5-4-2-7-5-4-2-0---------0--7--5--4--11--12--5-
D2--4------4--2--4----------------------------4--2--4------------------------
A---------2------------------------------------------------------------------
E----------------------------------------------------------------------------

E----------------------------------------------------------------------------
B----------------------------------------------------------------------------
G5--9------------------------------------------------------------------------
D----------------------------------------------------------------------------
A----------------------------------------------------------------------------
E----------------------------------------------------------------------------
Comments