Darkthrone - Transilvanian Hunger Chords & Tabs

 

Transilvanian Hunger Chords & Tabs

Darkthrone Chords & Tabs

Version: 1 Type: Tab 0 ratings
1 star 2 stars 3 stars 4 stars 5 stars
comments

Transilvanian Hunger Tab

    D A R K T H R O N E
  "Transilvanian  Hunger"

Transcribed by Hellion
(lord_hellion@mail.ru)

 RIFF 1
||-----------------------------------------------------------------
||-----------------------------------------------------------------
||-6-6-6-6-6-6-6-6-4-4-4-4-4-4-4-4-3-3-3-3-3-3-3-3-4-4-4-4-4-4-4-4-
||-6-6-6-6-6-6-6-6-6-6-6-6-6-6-6-6-6-6-6-6-6-6-6-6-6-6-6-6-6-6-6-6-
||-----------------------------------------------------------------
||-----------------------------------------------------------------

 ------------------------------------------------------------------||
 ------------------------------------------------------------------||
 -6-6-6-6-6-6-6-6-5-5-5-5-5-5-5-5-6-6-6-6-6-6-6-6-5-5-5-5-5-5-5-5--||
 -3-3-3-3-3-3-3-3-3-3-3-3-3-3-3-3-3-3-3-3-3-3-3-3-3-3-3-3-3-3-3-3--||
 ------------------------------------------------------------------||
 ------------------------------------------------------------------||

 RIFF 2
||------------------------------------------------------------------
||------------------------------------------------------------------
||------------------------------------------------------------------
||-6-6-6-6-6-6-6-6-6-6-6-6-6-6-6-6-7-7-7-7-7-7-7-7-7-7-7-7-7-7-7-7--
||-6-6-6-6-6-6-6-6-6-6-6-6-6-6-6-6-7-7-7-7-7-7-7-7-7-7-7-7-7-7-7-7--
||------------------------------------------------------------------
[ Tab from: http://www.guitartabs.cc/tabs/d/darkthrone/transilvanian_hunger_tab.html ]
 ------------------------------------------------------------||
 ------------------------------------------------------------||
 ------------------------------------------------------------||
 -6-6-6-6-6-6-6-6-6-6-6-6-6-6-6-6-9-9-9-9-9-10-10-10-10-10---||
 -6-6-6-6-6-6-6-6-6-6-6-6-6-6-6-6-7-7-7-7-7--7--7--7--7--7---||
 ------------------------------------------------------------||

 RIFF 3
||-----------------------------------------------------------------
||-----------------------------------------------------------------
||-----------------------------------------------------------------
||-8-8-8-8-8-8-8-8-8-8-8-8-8-8-8-8-8-8-8-8-8-8-8-8-8-8-8-8-8-8-8-8-
||-6-6-6-6-6-6-6-6-6-6-6-6-6-6-6-6-6-6-6-6-6-6-6-6-6-6-6-6-6-6-6-6-
||-----------------------------------------------------------------

 ------------------------------------------------------------------||
 ------------------------------------------------------------------||
 ------------------------------------------------------------------||
 -9-9-9-9-9-9-9-9-9-9-9-9-9-9-9-9-9-9-9-9-9-9-9-9-9-9-9-9-9-9-9-9--||
 -7-7-7-7-7-7-7-7-7-7-7-7-7-7-7-7-7-7-7-7-7-7-7-7-7-7-7-7-7-7-7-7--||
 ------------------------------------------------------------------||


 TRANSILVANIAN HUNGER song structure

 Riff 1 * 8
 Riff 2 * 8
 Riff 1 * 4
 Riff 2 * 4
 Riff 3 * 6
 Riff 1 * 4
 Riff 2 * 4
 Riff 1 * 8 (then fade out)
Comments