Darkthrone - Sunrise Over Locus Mortis Chords & Tabs

 

Sunrise Over Locus Mortis Chords & Tabs

Darkthrone Chords & Tabs

Version: 1 Type: Tab 0 ratings
1 star 2 stars 3 stars 4 stars 5 stars
comments

Sunrise Over Locus Mortis Tab

__________________________________________________________________________________________
-DARKTHRONE - SUNRISE OVER LOCUS MORTIS from the "Soulside Journey" CD (c) 1990 Peaceville
-Transcribed by Chris Myhre, version 1.0 Jan 98
-For questions, corrections, etc email me: cmyhre@nordi.no
-Tuning: 1.5 steps down (1:C#, 2:G#, 3:E, 4:B, 5:F#, 6:C#)
-Notation legend: ah = artificial harmonic; . = palm mute; / = slide up


  gtr 1 harm. 3rd time ___x4
  gtr 1 & 2	      |1-3 |					  x4
1>|------------------------|---------------------------------------|-----------------------
2>|------------6--5--------|---------------------------------------|-----------------------
3>|---4--3-----3--2----6ah-|---------------------------------------|-----------------------
4>|---2--1--5----------4---|4"---3"--------------------------------|-----------5---------5-
5>|---------3--------------|----------3"---2"------------------3---|-----5--4-------6------
6>|0-----------------------|--------------------2"---1"---0"-------|6----------------------

										    ____
										   |gtr1
  --------------------------------------------------------------------------------------
  --------------------------------------------------------------------------------------
  ----------------------------------------------------6---------------------------------
  -8------------------------------------------------5---5------5--8--9---------------5--
  ----7----2----5--4--5----4--------2---------5--4--------6---------------2----5--4-----
  --------------------3----2--------0----6----------------------------------------------

  _ ____
   |gtr2|							  riff A
  --------------|-------------------------------------------------|--------------------
  --------------|-------------------------------------------------|--------------------
  --------------|-------------------------------------------------|--------------------
  --------------|-------------------------------------------------|--------------------
  --5----4------|--------4"----0"------1"------------4"----0"-----|------------------4-
  --3----2------|1"---------2"------------3"-1"---------2"--------|1-111-1-111-1-111---
[ Tab from: http://www.guitartabs.cc/tabs/d/darkthrone/sunrise_over_locus_mortis_tab.html ]
		       _____ ________
		      | 1,2 |  3    x3	    . .   . .		 . .	     x4
  -----------------------------------|----------------------------------------|
  -----------------------------------|----------------------------------------|
  -----------------------------------|----------------------------------------|
  -----------------------3-----------|----------3-----5"-------------2--------|
  ---0-000-0-000-0-000-1-----1-------|0"----2-3---2-3------------2-3---2"--3--|
  -2-----------------------3-----3---|---------------------1"-----------------|

  gtr2 actually tremolos on and only strikes these * notes(2nd/3rd time only) x3
  |----------------------------------------------------------------------------|
  |-----------------------------------------------------------------------*----|
  |----------------------------------------------------*------------5---5-4----|
  |--------------*------------------*------------6---6-5----3"--------6--------|
  |--------5---5-4------------8---8-7----4"--------7---------------------------|
  |3"--------6--------6"--------9----------------------------------------------|

							 ________________
							| 2, 4		x4
  |----------------------------------------------------------------------|--------|
  |----------------------------------------------------------------------|--------|
  |----------------------------------------------------------------------| repeat |
  |------2--------------------------2----4"--3"----------5"--4"----------| riff A |
  |----------------------------------------------4"--1"----------5"--2"--|--------|
  |2"---------4"--3"--0"--1"--2"-----------------------------------------|--------|

			gtr 1 plays higher notes
	w/fill		gtr 2 plays lower notes	    x4     play last time
  |--------------------------------------------------|     |--------|
  |--------------------------------------------------|     |--------|
  |--------------------------------------------------|     |6---3---|  fill
  |---------------------------------5-------4--------|     |--------|  gtr 3
  |---------------------------------5---3---4---6----|     |--------|
  |11111111111111111111111111111111-----3-------6*---|     |--------|
				 * gtr 1 2nd time only
Comments